Oops, an error
Loading. Please wait.

The Pistolas - Take It With A Kiss Bass

version 1
version 1

Whole song

Interactive

1,166 views 1 this week
1 commentread comment
1 2 3 4 5
3 more votes to show rating
add to favorites
launch autoscroll
font size
0
reset
guitar tuner
Autoscroll
slow
fast
+/-
esc
set tempo
stop
Author
Difficulty
intermediate
Yeah so this is my first tab I've ever made, not just the first one I've ever put up.
Noticed this song wasn't tabbed and it has a great bassline.
But I'm not 100% on it, so if someone finds a problem lemme know,
because someone more experienced probably has a better ear for tabbing. 
Hope its good!

Intro - Keyboard

Verse 0:07
G|---------------------5-|
D|------1_1_1_-----------|
A|-3-x3------------1-1---| X4
E|------------3-x3-------|
Then..
G|-----------------------|
D|------1_1_1_-----------|
A|-3-x3------------1-1-1-|
E|------------3-x3-------|
Back To..
G|---------------------5-|
D|------1_1_1_-----------|
A|-3-x3------------1-1---| X4
E|------------3-x3-------|

Pre-Chorus Variation 0:42
G|-----------------------------|
D|------1_1_1_-------------1/3-| 
A|-3-x3------------3h4p3-------|
E|------------3-x3-------3-----|

Chorus 0:46
G|----------------------------|
D|------1-0h1-0h1-------5_5_3-|
A|-3-33-----------------------| X2
E|-----------------3-33-------|
(Keyboard Riff Starts)
G|---------------------|
D|------1-11------5-55-|
A|-3-33----------------|
E|-----------3-33------|

G|------------------35-|
D|------1-11------5----|
A|-3-33----------------|
E|-----------3-33------|

Verse2 1:02
G|---------------------5-|
D|------1_1_1_-----------|
A|-3-x3------------1-1---| X9
E|------------3-x3-------|
(Guitar + Drums enter after 1 riff)

Pre-Chorus Variation2 1:32
G|-----------------------------|
D|------1_1_1_-------------1/3-| 
A|-3-x3------------3h4p3-------|
E|------------3-x3-------3-----|

Chorus2 1:36
G|----------------------------|
D|------1-0h1-0h1-------5_5_3-|
A|-3-33-----------------------| X2
E|-----------------3-33-------|

G|---------------------|
D|------1-11------5-55-|
A|-3-33----------------|
E|-----------3-33------|

G|------------------35-|
D|------1-11------5----|
A|-3-33----------------|
E|-----------3-33------|

Bridge 2:00
G|--------------------3--|
D|------1_1_1_-0-x0----5-|
A|-3-x3------------------|
E|------------------3----|

G|-------------------------|
D|------1_1_1_-3-x3-5_5_3_-|
A|-3-x3--------------------|
E|-------------------------|

G|--------------------3--|
D|---------------------5-|
A|-3-x3-1_1_1_------3----|
E|-------------3-x3------|

G|--------------------------|
D|------1_1_1_-3-x3-5-3-1---|
A|-3-x3-------------------3-|
E|--------------------------|

Break (Only Vocals) 2:15

Chorus3 2:30
G|----------------------------|
D|------1-0h1-0h1-------5_5_3-|
A|-3-33-----------------------| X2
E|-----------------3-33-------|

G|---------------------|
D|------1-11------5-55-|
A|-3-33----------------|
E|-----------3-33------|

G|------------------35-|
D|------1-11------5----|
A|-3-33----------------| 
E|-----------3-33------|

End Abruptly:
A|--3--|

x = mute
h = hammer on
p = pull off
/ = slide
_ = silence prior note
Suggest correction
Give kudos to tab author, rate the tab!
1 2 3 4 5
comments
print report bad tab
1 comment total.
0 reply
BowlboKhabra92 31 Sep 20, 2010 03:00 PM

wowwwww. i was terrible when i first made this. my apologies. tonnes of mistakes. some of the main notes are correct but theres a lotta problems.

guest
You may want to rate the tab now too:
select rating
Wanna post a correction for this tab? Suggest correction