Oops, an error
Loading. Please wait.

The Plagued - Halcyonic Tab

110 views 1 this week
1 commentread comment
1 2 3 4 5
please rate
add to favorites
launch autoscroll
font size
0
reset
how to read this tab
guitar tuner
Autoscroll
slow
fast
+/-
esc
set tempo
stop
Help us to improve Ultimate-Guitar.com Take our survey!
×
Author
This is my first tab... umm... this song is really fun to play, but I just did the
main riffs and all that.
Sorry, I really don't have time for the solos (lol).
The Plagued is an amazing band, I recommend you check them out (and if you want to hear 
song) at
www.myspace.com/plaguedmusic
Email me if you have questions or whatever: ManOfPopsicle.LG@gmail.com
or
AIM: Th3Popsicle
Thanks for viewing.. oh yeah, and... beez0rk!!1!1!!one1!11!!

Tuning: Drop C (CGCFAD)

D|---------------------------------------------------|
A|---------------------------------------------------|
F|---------------------------------------------------|
C|--5~------------------------------4~---------------|
G|--5~-----------5------------------4~---------------|
C|--5~--0--5--8-----8--5--0--5--0---4~--4--4--4------|

D|---------------------------------------------------|
A|---------------------------------------------------|
F|---------------------------------------------------|
C|--5~-----------------------------------------------|
G|--5~-----------------------------------------------|
C|--5~--5--5--5--7--10--8--7--8--7--5--8--7--5h7p5---|
                 *   *  *  *  *  *  *  *  *
D|---------------------------------------------------|
A|---------------------------------------------------|
F|---------------------------------------------------|
C|---------------------------------------------------|
G|---------1-1-1-------------------------------------|
C|--/1-1-1-------4-4-4-0-0-0-------------------------|

D|---------------------------------------------------|
A|---------------------------------------------------|
F|---------------------------------------------------|
C|--5~------------------------------4~---------------|
G|--5~-----------5------------------4~---------------|
C|--5~--0--5--8-----8--5--0--5--0---4~--4--4--4------|

D|---------------------------------------------------|
A|---------------------------------------------------|
F|---------------------------------------------------|
C|--5~-----------------------------------------------|
G|--5~-----------------------------------------------|
C|--5~--5--5--5--7--10--8--7--8--7--5--8--7--5h7p5---|
                 *   *  *  *  *  *  *  *  *
D|---------------------------------------------------|
A|---------------------------------------------------|
F|---------------------------------------------------|
C|---------------------------------------------------|
G|---------1-1-1-------------------------------------|
C|--\1-1-1-------4-4-4-0-0-0-------------------------|

D|---------------------------------------------------|
A|---------------------------------------------------|
F|---------------7-----------------------------------|
C|--5~--0--5--8-----8--5--0--5--0---4~--4--4--4------|
G|---------------------------------------------------|
C|---------------------------------------------------|

D|---------------------------------------------------|
A|---------------------------------------------------|
F|---------------------------------------------------|
C|--5~--5--5--5--7--10--8--7--8--7--5--8--7--5h7p5---|
G|---------------------------------------------------|
C|---------------------------------------------------|

D|---------------------------------------------------|
A|---------------------------------------------------|
F|--------3-3-3--------------------------------------|
C|-\1-1-1-------4-4-4-0-0-0--------------------------|
G|---------------------------------------------------|
C|---------------------------------------------------|

D|---------------------------------------------------|
A|---------------------------------------------------|
F|----------------7----------------------------------|
C|--5~---0--5--8-----8--5--0--5--0---4~--4--4--4-----|
G|---------------------------------------------------|
C|---------------------------------------------------|

D|---------------------------------------------------|
A|---------------------------------------------------|
F|---------------------------------------------------|
C|--5~--5--5--5--7--10--8--7--8--7--5--8--7--5h7p5---|
G|---------------------------------------------------|
C|---------------------------------------------------|

D|---------------------------------------------------|
A|---------------------------------------------------|
F|--------3-3-3--------------------------------------|
C|-\1-1-1-------4-4-4-0-0-0----0~--------------------|
G|-----------------------------0~--------------------|
C|-----------------------------0~--------------------|

Drum fill thingy


D|-----------------------------------------------------------|
A|-----------------------------------------------------------|
F|-----------------------------------------------------------|
C|---------------------8-8-7-7-5-5---------------------------|
G|-5-5-8-8-7-7-4-4-5-5-------------8-8-----7-7-4-4-5-5-8-8-5~|
C|-------------------------------------7-7-------------------|

D|-----------------------------------------------------------|
A|-----------------------------------------------------------|
F|-----------------------------------------------------------|
C|---------------------8-8-7-7-5-5---------------------------|
G|-5-5-8-8-7-7-4-4-5-5-------------8-8-----7-7-4-4-5-5-8-8-5~|
C|-------------------------------------7-7-------------------|

D|----------------------------------------------------|
A|----------------------------------------------------|
F|----------------------------------------------------|
C|----------------------------------------------------|
G|------5--4------8--5--------------8--7--------------|
C|--0-0-------0-0-------0-0-0-0-0-0-------------------|
    * *       * *       * * * * * *

D|--------------------------------------------------|
A|--------------------------------------------------|
F|--------------------------------------------------|
C|--7-7-5-5-3-3-2-2---------------------------------|
G|--------------------------------------------------|
C|--------------------------------------------------|

OR

D|--------------------------------------------------|
A|--------------------------------------------------|
F|--------------------------------------------------|
C|--------------------------------------------------|
G|--12-12-10-10-8-8-7-7-----------------------------|
C|--------------------------------------------------|

D|----------------------------------------------------|
A|----------------------------------------------------|
F|----------------------------------------------------|
C|----------------------------------------------------|
G|------5--4------8--5--------------8--7--------------|
C|--0-0-------0-0-------0-0-0-0-0-0-------------------|
    * *       * *       * * * * * *

D|--------------------------------------------------|
A|--------------------------------------------------|
F|------------9-12-10-------------------------------|
C|-------8-11---------------------------------------|
G|--7-10--------------------------------------------|
C|--------------------------------------------------|

Again, it was my first tab... but yeah, please leave comments blah blah blah.. and check 
these pages:
www.myspace.com/manofpopsicle
www.myspace.com/plaguedmusic
www.myspace.com/comewhatmayhem
Suggest correction
Give kudos to tab author, rate the tab!
1 2 3 4 5
comments
print report bad tab
1 comment total.
0 reply
Veil of Lies 10 wrote on April 27 2010, 09:29 am

Dude... I saw The Plagued on Saturday at the Skillman Street Pub in Dallas. It was pretty awesome. I had seen them before at the Battle of the Bands in Little Elm but it was even more bad ass than that. I would very much appreciate it if you tabbed the rest of the song.

guest
You may want to rate the tab now too:
select rating
Please do not post tabs as comments. Select "correction" instead!