Oops, an error
Loading. Please wait.

The Pledge Drive - Penn State Fight Song Tab

477 views 3 this week
no commentswrite comment
1 2 3 4 5
please rate
add to favorites
launch autoscroll
font size
0
reset
how to read this tab
guitar tuner
Tab Pro tools
  • play this tab
  • loop segment
  • change instrument
  • show fretboard
  • metronome
×
Best way to learn
"The Pledge Drive - Penn State Fight Song"
Autoscroll
slow
fast
+/-
esc
set tempo
stop
Tuning
D A D G B E
Tuning: drop d (D,A,D,G,B,e)
Song: Penn State Fight Song

this is how i play it live...i realize on the e.p. at some points theres a couple of
tracks that i'm playing simultaneously but hey thats just how it goes...oh this is the song
through

note->first off this is only the lead parts to the song secondly the only thing thats
in the recording i like to do live is use the wah pedal right before the second verse
the riff based off the c power chord...i push the pedal from top to bottom so that more 
gained over the course of the notes being palm muting, finishing with the most wah
before i do the natural harmonics...


key:
. = palm muting
h = hammeron
p = pull-off
b = bend
r = release bend
v = vibrato
/ = slide
(5) = natural harmonic
<9> = pinch harmonic

Intro:
-----
-15~- (right at the end)
-x---
-x---
-15~-
-----

Verse:
---------------------------------|
---------------------------------| x2
-------------------------5555555-|
-222222222222222-0000000-5555555-|
-222222222222222-0000000-3333333-|
-222222222222222-0000000---------|
  ..............  .....    .....

------------------------------------|
------------------------------------| x2 (second time release the c slowly)
---------------------------5-555-55-|
-2-222-222-222-22-0-000-00-5-555-55-|
-2-222-222-222-22-0-000-00-3-333-33-|
-2-222-222-222-22-0-000-00----------|
   ...  .  ...  .   ...  .   ...  .

pre-chorus:
-7-10----------------------------------|
------8-10-8-7h8p7h8p7h87h8p7h8p7h8-8/-|
---------------------------------------|
---------------------------------------|
---------------------------------------|
---------------------------------------|

chorus:
-------------------------------------------------------------|
-------------------------------------------------------------|
-----5555-5-4---7-5-4---4-----12121212-12-11----14-12-11-----|
-22--5555-----5-------5---22--x-x-x-x--------12----------12/-|
-22--3333-----------------22--10101010-----------------------|
-22-----------------------22---------------------------------|

----------------------------------------------------------------|
----------------------------------------------------------------|
-----------5555-5-4---7-5-4---4----------55-777-999-111111-1212-|
-222222222-5555-----5-------5---22222222-xx-xxx-xxx-x-x-x--x-x--|
-222222222-3333-----------------22222222-33-555-777-9-9-9--1010-|
-222222222----------------------22222222------------------------|

pre-Verse:
---------------------------------|
---------------------------------|x2
-------------------------5555555-|
-222222222222222-0000000-5555555-|
-222222222222222-0000000-3333333-|
-222222222222222-0000000---------|
  ..............  .....    .....

---------------------------------(5)-|
---------------------------------(5)-|
-5554445555544455544455555444555-(5)-|
-5555555555555555555555555555555-----|
-3333333333333333333333333333333-----|
-------------------------------------|
  .. .. . .. .. .  .. . .. .. .

Verse:
---------------------------------|
---------------------------------| x2
-------------------------5555555-|
-222222222222222-0000000-5555555-|
-222222222222222-0000000-3333333-|
-222222222222222-0000000---------|
  ..............  .....    .....

-----------------------------------------------------------------|
-----------------------------------------------------------------| x2
-----------------------------------------------------------------|
---5-4-------------5-4-------------5-4-------------5-4-----------|
-------5-2p0-3h5-------5-2p0-3h5-------5-2p0-3h5-3-----5-2p0-3h5-|
-2---------------2---------------0-------------------------------|

pre-chorus:
-7-10--------------7h8h10--------7h8h10--------7h8h10--------7h8h10-|
------8-10-8-7h810--------7h8h10--------7h8h10--------7h8h10--------|
--------------------------------------------------------------------|
--------------------------------------------------------------------|
--------------------------------------------------------------------|
--------------------------------------------------------------------|

chorus:
-------------------------------------------------------------|
-------------------------------------------------------------|
-----5555-5-4---7-5-4---4-----12121212-12-11----14-12-11-----|
-22--5555-----5-------5---22--x-x-x-x--------12----------12/-|
-22--3333-----------------22--10101010-----------------------|
-22-----------------------22---------------------------------|

-------------------------------------------------------------------------------------|
-----------------------------------------------------------------13-12----13-12------|
-----------5555-5-4---7-5-4---4----------55-777-999-111111-1212--------12-------12---|
-222222222-5555-----5-------5---22222222-xx-xxx-xxx-x-x-x--x-x-----------------------|
-222222222-3333-----------------22222222-33-555-777-9-9-9--1010----------------------|
-222222222----------------------22222222---------------------------------------------|

solo:
-------------------------------------------------------------|
-8-0-7-0-5-0-3-0-1-0-3-0-1-0-3-0-8-0-7-0-5-0-3-0-1-0-3-0-1/7-|
-------------------------------------------------------------|
-------------------------------------------------------------|
-------------------------------------------------------------|
-------------------------------------------------------------|

-------------------------------------------------------------------------|
-8-0-7-0-5-0-3-0-1-0-3-0-1-0-3-0-8-0-7-0-5-0-3-0-3p1p0-5p3p0-7p5p0-8p7p0-|
-------------------------------------------------------------------------|
-------------------------------------------------------------------------|
-------------------------------------------------------------------------|
-------------------------------------------------------------------------|

-10-8-7----8-7------7-----------------------------|
--------10-----10-8---10-8-7-8-7-------7-8/10-8---|
---------------------------------9-7-9----------9-|
--------------------------------------------------|
--------------------------------------------------|
--------------------------------------------------|

-------------------------------8p7---10-----12p10----15-------15-15/17/15~---(9)-|
-------------7h8p7-----10p8--------8----8---------13----13----x---x--x-------(9)-|
-----7-9-<9>-------9-7------7-------------7----------------12-12-12/14/12~---(9)-|
-7-9-----------------------------------------------------------------------------|
---------------------------------------------------------------------------------|
---------------------------------------------------------------------------------|

bridge:
-----------------------------------------------------------------|
-----------------------------------------------------------------|
--------------55555555------------------------------555555555555-|
-555555555555-55555555-4h5p4p0-4h5p4p0-555555555555-555555555555-|
-555555555555-33333333-----------------555555555555-333333333333-|
-555555555555--------------------------555555555555--------------|
  ...........   ......                  ...........   ..........

---------------------------------------------------------------------------------------------|
---------------------------------------------------------------------------------------------|
----------55555555----------5555-5p4p0-------7p5p0----------------55555555----------55555555-|
-55555555-55555555-55555555-5555-------7p5p0-------7p5p0-55555555-55555555-55555555-55555555-|
-55555555-33333333-55555555-3333-------------------------55555555-33333333-55555555-33333333-|
-55555555----------55555555------------------------------55555555----------55555555----------|

-------------------------------------------------------------------------------12-14-15--15/17-15-14h15p14----|
----------------------------------------------------------------------12-13-15-----------------------------15-|
-------------------------------------------------------------11-12-14-----------------------------------------|
-22-22-22-22-2-2-1010-1010-1010-1010-10-10----------10-12-14--------------------------------------------------|
-22-22-22-22-2-2-1010-1010-1010-1010-10-10-10-12-14-----------------------------------------------------------|
-22-22-22-22-2-2-1010-1010-1010-1010-10-10--------------------------------------------------------------------|

----------15-17b17.5r17-15v/-|
-------15--------------------|
----16-----------------------|
-17--------------------------|
-----------------------------|
-----------------------------|

chorus:
---------------------------------------------------------------|
---------------------------------------------------------------|
-5555-5-4---7-5-4---4-----------12121212-12-11----14-12-11-----|
-5555-----5-------5---22222222--x-x-x-x--------12----------12/-|
-3333-----------------22222222--10101010-----------------------|
----------------------22222222---------------------------------|

---------------------------------------------------------------------|
---------------------------------------------------------------------|
-----------5555-5-4---7-5-4---4----------55-777-999-111111-1212---9~-|
-222222222-5555-----5-------5---22222222-xx-xxx-xxx-x-x-x--x-x----x--|
-222222222-3333-----------------22222222-33-555-777-9-9-9--1010---7~-|
-222222222----------------------22222222-----------------------------|

enjoy! if you haven't heard of us and just stumbled across this, search us on myspace,
recording is up there
comments
We did not receive enough feedback on this tab! Please rate:
print report bad tab
1 2 3 4 5
I want to post or [tab]
guest
You may want to rate the tab now too:
select rating
Please do not post tabs as comments. Select "correction" instead!