Oops, an error
Loading. Please wait.

The Poets Dance - The God Before Me Tab

46 views 1 this week
no commentswrite comment
1 2 3 4 5
please rate
add to favorites
launch autoscroll
font size
0
reset
how to read this tab
guitar tuner
Tab Pro tools
  • play this tab
  • loop segment
  • change instrument
  • show fretboard
  • metronome
Autoscroll
slow
fast
+/-
esc
set tempo
stop
Contributor
Difficulty
novice
-------------------------------------------------------------------------------
                             The God Before Me - The Poets Dance
-------------------------------------------------------------------------------
Guitar: 1
Tuning: Standard

Intro:                      Intro pt2./Chorus/ Verse 2
e|-6-6---4-4---2-2---4-4---|---------------------------|-------------------------------|
B|-6---6-4---4-2---2-4---4-|---------------------------|-------------------------------|
G|-8-----6-----4-----6-----|-8---6---4---6-------------|-------------------------------|
D|-8-----6-----4-----6-----|-8---6---4---6-------------|-------------------------------|
A|-6-----4-----2-----4-----|-6---4---2---4-------------|-------------------------------|
E|-6-----4-----2-----4-----|-6---4---2---4-------------|-------------------------------|


PC      
e|--------------------------------------------------------------------------------------------|
B|--------------------------------------11-11h12-11-------------------------------------------|
G|-8-----11-10----------11--------13-13-------------13---11-----11-10----------11-------13-13-|
D|---8---------11----9------9--11---------------------------8---------11-----9----9--11-------|
A|-----9----------9-------------------------------------------9-----------9-------------------|
E|--------------------------------------------------------------------------------------------|
                    Verse 2(2nd half)                     end 1             end 2
e|-----------------|-------------------------------------|-----------------|-------------------|
B|-11-11h12-11--14-|-------------------------------------|-----------------|-------------------|
G|-----------------|-------------------------------------|-----------------|-------------------|
D|-----------------|-------11-------11-------11-------11-|------11-11-11-8-|-------11-11-11-13-|
A|-----------------|-8-9-8----8-9-8----8-9-8----8-9-8----|-8-9-8-----------|-8-9-8-------------|
E|-----------------|-------------------------------------|-----------------|-------------------|

V2 Chorus lead-in            Bridge: "but time fucks everyone it owns..."
e|--------------------------|-------9-------9-------9----------13----------13----------13|
B|------------------9-11-12-|-6-7-6---6-7-6---6-7-6----11-12-11---11-12-11----11-12-11---|
G|-------------9-10---------|------------------------------------------------------------|
D|--------9-10--------------|------------------------------------------------------------|
A|-8-9-11-------------------|------------------------------------------------------------|
E|--------------------------|------------------------------------------------------------|
                               Play once through- then again doubling each phrase


Guitar: 2
Intro/Chorus/Verse2  Bridge:
e|---------------|------------------------------------------------------------|
B|---------------|------------------------------------------------------------|
G|-8---6---4---6-|--8---11--10--11--------------------------------------------|
D|-8---6---4---6-|--x---x---x---x----9---11-----------------------------------|
A|-6---4---2---4-|--6---9---8---9----9---11-----------------------------------|
E|-6---4---2---4-|-------------------7---9------------------------------------|

e|---------------------------------------------------------------------------|
B|---------------------------------------------------------------------------|
G|---------------------------------------------------------------------------|
D|---------------------------------------------------------------------------|
A|---------------------------------------------------------------------------|
E|---------------------------------------------------------------------------|

************************************

| /   slide up
| \   slide down
| h   hammer-on
| p   pull-off
| ~   vibrato
| +   harmonic
| x   Mute note
| b   Bend
| pb  Pre-bend
| br  Bend release
| pbr Pre-bend release
| brb Bend release bend

************************************
comments
We did not receive enough feedback on this tab! Please rate:
print report bad tab
1 2 3 4 5
I want to post or [tab]
guest
You may want to rate the tab now too:
select rating
Please do not post tabs as comments. Select "correction" instead!