Oops, an error
Loading. Please wait.

The Possibility And The Promise - Fast Times And Innocent Crimes Bass Tab

57 views 3 this week
no commentswrite comment
1 2 3 4 5
please rate
add to favorites
launch autoscroll
font size
0
reset
guitar tuner
Autoscroll
slow
fast
+/-
esc
set tempo
stop
Help us to improve Ultimate-Guitar.com Take our survey!
×
Author
-------------------------------------------------------------------------------
			     Fast Times and Innocent Crimes - TPATP
-------------------------------------------------------------------------------


Intro Part 1: 2x  (0:00-0:22)

G|------------------------------------------------------------------------------|
D|------------------------------------------------------------------------------|
A|---7-7------------------------------------------------------------------------|
E|-------------7-7-------9-9-------slidedown5-----------------------------------|


Intro Part 2 (Same as Chorus):  (0:22-0:32)
G|---------------------------------------------------------------------------|
D|---------------------------------------------------------------------------|
A|---7-7-7-7-7-7-7-7---------------------------------------------------------|
E|-------------------7-7-7-7-7-7-7-7--9-9-9-9-9-9-9-9--5-5-5-5-5-5-57--------|


Verse: 4x  (0:32-1:12)
G|---------------------------------------------------------------------------|
D|---------------------------------------------------------------------------|
A|---7-7-7-7-7-7-7-9---------------------------------------------------------|
E|-------------------7-7-7-7-7-7-7-9--5-5-5-5-5-5-5-5--9-9-9-9-7-7-7-9-------|


Pre-Chorus:  (1:12-1:17)
G|--------------------------------------------------------------------------------|
D|--------------------------------------------------------------------------------|
A|---7-7-7-7-9-9-9----------------------------------------------------------------|
E|-----------------9-5>>>---------------------------------------------------------|


Chorus:  (1:17-1:38)
G|---------------------------------------------------------------------------|
D|---------------------------------------------------------------------------|
A|---7-7-7-7-7-7-7-7---------------------------------------------------------|
E|-------------------7-7-7-7-7-7-7-7--9-9-9-9-9-9-9-9--5-5-5-5-5-5-5-7-------|

G|---------------------------------------------------------------------------|
D|---------------------------------------------------------------------------|
A|---7-7-7-7-7-7-7-7---------------------------------------------------------|
E|-------------------7-7-7-7-7-7-7-7--9-9-9-9-7-7-7-7--5-5-5-5-5-5-5-5-------|


Half of Intro Part 1: (1:38-1:48)
Verse 3x:  (1:48-2:18)
Pre-Chorus:  (2:18-2:23)
Chorus:  (2:23-2:43)


Bridge Part 1: 2x  (2:43-2:53)
G|---------------------------------------------------------------------------|
D|---------------------------------------------------------------------------|
A|---4-4-4-4-4-4-4-4--2-2-2-2-2-2-2-2--0-0-0-0-0-0-0-0-0-0-0-0-0-0-0-0-------|
E|---------------------------------------------------------------------------|


Bridge Part 2: 2x  (2:54-3:14)
G|---------------------------------------------------------------------------|
D|---------------------------------------------------------------------------|
A|--9-9-9-9-9-999-7-4-4-4-4-4-444-7----------------7-7-7-7-------------------|
E|----------------------------------5-5-5-5-5-5555---------7-7-7-7-----------|

Bridge Part 3: (3:14-3:26)
G|-----------------------------------------------------------------------------|
D|-----------------------------------------------------------------------------|
A|---7>>>>>>>------------------------------------------------------------------|
E|--------------7>>>>>>>--9>>>>>>>  5>>>>>>>-----------------------------------|

Chorus: 2x  (3:26-End)


| /  slide up
| \  slide down
| h  hammer-on
| p  pull-off
| ~  vibrato
| +  harmonic
| x  Mute note
===============================================================================
Suggest correction
What's this?
You can suggest a correction to this tab. Community and Mods will review your correction and vote to approve or reject it.
comments
We did not receive enough feedback on this tab! Please rate:
print report bad tab
1 2 3 4 5
guest
You may want to rate the tab now too:
select rating
Please do not post tabs as comments. Select "correction" instead!