Oops, an error
Loading. Please wait.

The Possibility And The Promise - Sticks And Stones Bass Tab

50 views 1 this week
no commentswrite comment
1 2 3 4 5
please rate
add to favorites
launch autoscroll
font size
0
reset
guitar tuner
Tab Pro tools
  • play this tab
  • loop segment
  • change instrument
  • show fretboard
  • metronome
×
Best way to learn
"The Possibility And The Promise - Sticks And Stones"
Autoscroll
slow
fast
+/-
esc
set tempo
stop
Contributor
-------------------------------------------------------------------------------
			              Sticks and Stones - The Possibility and the Promise
-------------------------------------------------------------------------------

> means hold note out/let ring

Intro:
G|---------------------------------------------------------------------------|
D|---------------------------------------------------------------------------|
A|----5-5-5--9h10p9--7-7-7-7-7-7-7--5-5-5-5-5--------------------------------|
E|---------------------------------------------5-5-5-5-5-5-5-----------------|

G|---------------------------------------------------------------------------|
D|---------------------------------------------------------------------------|
A|----5-5-5--9h10p9--7-7-7-7-7-7-7-------------------------------------------|
E|----------------------------------3-3-3-3-3-3-3-3-3-3-3-3-3----------------|


Verse: 2x
G|---------------------------------------------------------------------------|
D|---------------------------------------------------------------------------|
A|---5------5-5>-------------------------------------------------------------|
E|--------------------------5-5-5>---7-7-7-7--3-3-3-3------------------------|


Pre-Chorus:
G|---------------------------------------------------------------------------|
D|---------------------------------------------------------------------------|
A|---2-2-2-2-2-----------5-5-5-5-5-------------------------------------------|
E|-------------3-3-3-3-3-----------5-5-5-5-5---------------------------------|

G|---------------------------------------------------------------------------|
D|---------------------------------------------------------------------------|
A|---2-2-2-2-2---------------------------------------------------------------|
E|-------------3-3-3-3-3--5-5-5-5-5-5-5-5-5-5--------------------------------|


Chorus: 2x
G|---------------------------------------------------------------------------|
D|---------------------------------------------------------------------------|
A|---5-5-5-------------------------------------------------------------------|
E|---------5-5-5-5-5--7-7-7--3-3-3-3-3---------------------------------------|

G|-----------------------------------------------------------------------------|
D|-----------------------------------------------------------------------------|
A|---5-5-5---------------------------------------------------------------------|
E|---------5-5-5-5-5-------7-7-----3-3-----------------------------------------|

Intro 1x
Verse
Pre-Chorus
Chorus
Pre-Chorus


Bridge: 4x
G|---------------------------------------------------------------------------|
D|---------------------------------------------------------------------------|
A|---2------------------5-55--10-9-0-0-0-0-0-0-------------------------------|
E|-----5--3-3-3-3-3-3--------------------------------------------------------|

Chorus 4x


| /  slide up
| \  slide down
| h  hammer-on
| p  pull-off
| ~  vibrato
| +  harmonic
| x  Mute note
===============================================================================
comments
We did not receive enough feedback on this tab! Please rate:
print report bad tab
1 2 3 4 5
I want to post or [tab]
guest
You may want to rate the tab now too:
select rating
Please do not post tabs as comments. Select "correction" instead!