Oops, an error
Loading. Please wait.

The Potbelleez - Dont Hold Back Tab

version 2
version 2

Whole song

8,780 views 3 this week
no commentswrite comment
1 2 3 4 5
excellent!
x 5
add to favorites
launch autoscroll
font size
0
reset
how to read this tab
guitar tuner
Tab Pro tools
  • play this tab
  • loop segment
  • change instrument
  • show fretboard
  • metronome
×
Best way to learn
"The Potbelleez - Dont Hold Back"
Autoscroll
slow
fast
+/-
esc
set tempo
stop
Difficulty
novice
Potbelleez Web Site:
http://profile.myspace.com/index.cfm?fuseaction=user.viewprofile&friendID=43067625

-------------------------------------------------------------------------------
                             Don't Hold Back - The Potbelleez
-------------------------------------------------------------------------------
Tabbed by: SkidMader
Email: Lmader45@hotmail.com

Tuning: Standard

Steel String Acoustic Guitar
First Chords

E|---2-2-2-2---|
B|---2-2-2-2---|
G|---3-3-3-3 --|
D|---4-4-4-4---|
A|---4-4-4-4---|
E|---2-2-2-2---|

Then begins the Intro/Chorus Riff

E|---4-------4-4-4-4-----2-2----2-2-2-2-----2-2---2-2-2-2----4-----4-4-4-4-------------|
B|---4h-5—---5-5-5-5-----4-4----4-4-4-4-----2-2---2-2-2-2----4h-5--5-5-5-5-------------|
G|---4h-6—---6-6-6-6-----4-4----4-4-4-4-----3-3---3-3-3-3----4h-6--6-6-6-6-------------|
D|---4h-6—---6-6-6-6-----4-4----4-4-4-4-----4-4---4-4-4-4----4h-6--6-6-6-6-------------|
A|---4-------4-4-4-4-----2-2----2-2-2-2-----4-4---4-4-4-4----4-----4-4-4-4-------------|
E|-------------------x 2---------------x 2--2-2---2-2-2-2-x 2--------------------------|x2

During the verse on Bass, play this riff with a bit of distortion and it sounds great to 
the synth

G|-------------------|
D|-----11--11--------|
A|-------------------|
E|-/9---------9--9---|

Youll notice the synth bass line in the actual song is just the first note, but adding 
variation of the higher octave when playing with a band adds alot more feel to the verses

Also, the little fills in the verses are below. Their not perfect but sound good.
End on the last part on the fill before the chorus.

G|------------------|--|
D|------------------|--|
A|------------------|--|
E|-9-9-6-6-9-9-4-4--|-3|


Electric Guitar
2nd half of 2nd Chorus and all of 3rd Chorus - Just ring these chords out with overdrive

E|---4--------2----------2--------4-------------|
B|---5—-------4----------2--------5-------------|
G|---6—-------4----------3--------6-------------|
D|---6—-------4----------4--------6-------------|
A|---4--------2----------4--------4-------------|
E|-----------------------2----------------------|


Keep playing the Electric chords during the solo


Solo

E|-----------7----------7-----------------------|
B|--9-------------------------------------------|
G|-------------8-----------6-------4----6-------|
D|----------------------------------------------|
A|----------------------------------------------|
E|----------------------------------------------|
comments
print report bad tab
I want to post or [tab]
guest
You may want to rate the tab now too:
select rating
Please do not post tabs as comments. Select "correction" instead!