Oops, an error
Loading. Please wait.

The Promise Morning - Home Sweet Home Tab

102 views 3 this week
no commentswrite comment
1 2 3 4 5
please rate
add to favorites
launch autoscroll
font size
0
reset
how to read this tab
guitar tuner
Autoscroll
slow
fast
+/-
esc
set tempo
stop
Help us to improve Ultimate-Guitar.com Take our survey!
×
Author
Difficulty
novice
This is a song by The Promise Morning and its called Home Sweet Home. There is also 
in it but I don't know how to do piano in tablature form. There is a lead guitar as well but 
really quite.


Intro: Rhythm Guitar
e|-----------------------------------------------|
B|-----------------------------------------------|
G|-----------------------------------------------|
D|----------------------------7-7----------------|
A|77--77--33--33--77--77--33--5-5-2-2------------|
E|55--55--11--11--55--55--11------0-0------------|

As she's walking down the isle, I can see the fear in her eyes... ...I just can't go in 
future.

Verse: Rhythm Guitar
e|-----------------------------------------------|
B|-----------------------------------------------|
G|-----------------------------------------------|
D|------7-77-------------------------------------|
A|7-77--5-55--77--22--77--33--77--33-3-33--------|
E|5-55--------55--00--55--11--55--11-1-11--------|

Pre-chorus: Rhythm Guitar (ring out when strumming)
e|-----------------------------------------------|
B|-----------------------------------------------|
G|-----------------------------------------------|
D|---------5--55-5-------------------------------|
A|2--22-2--3--33-5--5--55-5--7--77-7-------------|
E|0--00-0-----------3--33-3--5--55-5-------------|

Verse: Rhythm Guitar
e|-----------------------------------------------|
B|-----------------------------------------------|
G|-----------------------------------------------|
D|----77-----------------------------------------|
A|77--55--77--22--77--33--77--33-3-33------------|
E|55------55--00--55--11--55--11-1-11------------|

Pre-chorus: Rhythm Guitar (ring out when strumming)
e|-----------------------------------------------|
B|-----------------------------------------------|
G|-----------------------------------------------|
D|---------5--55-5-------------------------------|
A|2--22-2--3--33-5--5--55-5--7--77-7-------------|
E|0--00-0-----------3--33-3--5--55-5-------------|

Chorus: Rhythm Guitar (ring out when strumming)
e|-----------------------------------------------|
B|-----------------------------------------------|
G|-----------------------------------------------|
D|---------5--55-5-------------------------------|
A|2--22-2--3--33-5--5--55-5--7--77-7-------------|
E|0--00-0-----------3--33-3--5--55-5-------------|

Phase 1: Rhythm Guitar ("H" means harmonic)
e|-----12h-----------------------------------------|
B|----------------5h-------------------------------|
G|--------------5h---------------------------------|   Play this riff 2x
D|---------5--5------------------------------------|
A|2--2-----3--3------------------------------------|
E|0--0---------------------------------------------|

Pre-chorus: Rhythm Guitar (ring out when strumming)
e|-----------------------------------------------|
B|-----------------------------------------------|
G|-----------------------------------------------|
D|---------5--55-5-------------------------------|
A|2--22-2--3--33-5--5--55-5--7--77-7-------------|
E|0--00-0-----------3--33-3--5--55-5-------------|

Chorus: Rhythm Guitar (ring out when strumming)
e|-----------------------------------------------|
B|-----------------------------------------------|
G|-----------------------------------------------|
D|---------5--55-5-------------------------------|
A|2--22-2--3--33-5--5--55-5--7--77-7-------------|
E|0--00-0-----------3--33-3--5--55-5-------------|


Pre-chorus: Rhythm Guitar (ring out when strumming)
e|-----------------------------------------------|
B|-----------------------------------------------|
G|-----------------------------------------------|
D|---------5--55-5-------------------------------|
A|2--22-2--3--33-5--5--55-5--7--77-7-------------|
E|0--00-0-----------3--33-3--5--55-5-------------|

Thats it! =]]
Suggest correction
Give kudos to tab author, rate the tab!
1 2 3 4 5
comments
print report bad tab
guest
You may want to rate the tab now too:
select rating
Wanna post a correction for this tab? Suggest correction