Oops, an error
Loading. Please wait.

The Public Soundtrack - Saturday School Morning Wake Up Bass Tab

69 views 1 this week
no commentswrite comment
1 2 3 4 5
please rate
add to favorites
launch autoscroll
font size
0
reset
guitar tuner
Autoscroll
slow
fast
+/-
esc
set tempo
stop
Help us to improve Ultimate-Guitar.com Take our survey!
×
Author
Difficulty
novice
Artist: The Public Soundtrack
Song: Saturday School (morning wake up)

Tuning: GDAE

Intro (x2): bass comes in after guitars

G----------------------------------------------------------------------------|
D--------2-2--0----------2-2---0-------2-2-----0-----------------------------|
A----0-0----4------0-0-0----4-------0-0-----4-----------0-0-0--2-2--4-4------|
E----------------------------------------------------------------------------|

Verse 1

G----------------------------------------------------------------------------|
D-------2-2----0---------2-2----------2-2------0-----------------------------|
A----0-0-----4-----0-0-0----4-----0-0------4-------0-0-0--2-2--4-4-----------|
E----------------------------------------------------------------------------|

Chorus (1st time)

G-----------------------------------------------------------------------------|
D-----------------------------------------------------------------------------|
A-0-0-0-0-0-0-2-2-0-0-0-0-5-5-5-5-5-7-5-3h5-0-0-0-0-0-0-2-2-0-0-0-0-5-5-5-5-7-|
E-----------------------------------------------------------------------------|

Verse 2

G----------------------------------------------------------------------------|
D------------2--------------------2-------------------2----------------------|
A-----0--0-------4--------0--0------4--------0--0-------4--------0--0--2--4--|
E----------------------------------------------------------------------------|

Chorus (2nd time)

G-----------------------------------------------------------------------------|
D-----------------------------------------------------------------------------|
A------0-0-0-0-0-0-2-2-0-0-0-0-5-5-5-5-5-7-5---3h5----------------------------|
E-----------------------------------------------------------------------------|

Breakdown

G----------------------------------------------------------------------------|
D----------------------------------------------------------------------------|
A--2-2-2-2-2-2-2-2---5-5-5-5-5-5-5-5---7-7-7-7-7-7-7-7---7-7-7-7-7-5-5-5-----|
E----------------------------------------------------------------------------|
Suggest correction
Give kudos to tab author, rate the tab!
1 2 3 4 5
comments
print report bad tab
guest
You may want to rate the tab now too:
select rating
Please do not post tabs as comments. Select "correction" instead!