Oops, an error
Loading. Please wait.

The Real You - Unwound Tab

597 views 1 this week
no commentswrite comment
1 2 3 4 5
please rate
add to favorites
launch autoscroll
font size
0
reset
how to read this tab
guitar tuner
Autoscroll
slow
fast
+/-
esc
set tempo
stop
Help us to improve Ultimate-Guitar.com Take our survey!
×
Author
Difficulty
novice
Artist: The Real You
Song: Unwound
Album: Better Now Than Ever EP
Year: 2009
Tuning: EADGBe

This is actually played on the piano.

--------------------------------------------------------------------------------------

Tempo: 104

    S S S S E   E   H                 S S S S E   E   S S S S E   E
e||-------3-L-----------------------|-------6-L-----------------------|
B||-------------4---L---------------|-------------4---------3-L---4---|\
G||-----3---------------------------|-----3---------------3-----------| \
D||---1-----------------------------|---1---------------1-------------|  \
A||-3-------------------------------|-3---------------3---------------|   \
E||---------------------------------|---------------------------------|    \
                                                                            x4
    S S S S E   E   H                 S S S S E   E   S S S S S S S S      /
  |-------3-L-----------------------|-------3-L---1---------3-L-1-----|   /
  |-------------4---L---------------|-----------------------------4-1-|  /
  |-----3---------------------------|-----3---------------3-----------| /
  |---1-----------------------------|---1---------------1-------------|/
  |-3-------------------------------|-3---------------3---------------|
  |---------------------------------|---------------------------------|

    S S S S E   E   H                 S S S S E   E   H
  |-------3-L-----------------------|-------18L-----------------------||
  |-------------4---L---------------|-------------16--L---------------||
  |-----3---------------------------|-----15--------------------------||
  |---1-----------------------------|---13----------------------------||
  |-3-------------------------------|-15------------------------------||
  |---------------------------------|---------------------------------||

--------------------------------------------------------------------------------------

Duration Legend
---------------
H - half
E - 8th
S - 16th

Tab Legend
---------------
L - Tied note
Suggest correction
Give kudos to tab author, rate the tab!
1 2 3 4 5
comments
print report bad tab
guest
You may want to rate the tab now too:
select rating
Please do not post tabs as comments. Select "correction" instead!