Oops, an error
Loading. Please wait.

The Reckless Life - Boring Road Bass Tab

91 views 1 this week
no commentswrite comment
1 2 3 4 5
please rate
add to favorites
launch autoscroll
font size
0
reset
guitar tuner
Autoscroll
slow
fast
+/-
esc
set tempo
stop
Help us to improve Ultimate-Guitar.com Take our survey!
×
Author
Intro & Verse

G|-----------------------------------------------|
D|-----------------------------------------------|
A|---2-----4-----2-----4-----2-----4-----2-----4-|
E|-4---4-4---4-2---2-2---2-0---0-0---0-2---2-2---|

Chorus

G|--------------------------------------------------|
D|-2(x16)----------------------2(x16)---------------|
A|--------4(x16)----------------------4(x16)-2(x32)-|
E|---------------2(x16)-4(x16)----------------------|

Bass Solo

G|-----------------13(x4)---------16(x4)---------------------------13(x4)-
D|---------14(x16)--------14(x4)---------16(x4)-14(x4)--------------------
A|-----------------------------------------------------16-14--------------
E|-12(x16)---------------------------------------------------16-14--------

  --------16(x4)--------------------------------------|
  -14(x4)--------14(x4)-16(x4)-14(x4)-----------------|
  ------------------------------------16-14-----------|
  ------------------------------------------16-14-12~-|

Order to Play:
Intro & Verse
Chorus
Intro & Verse
Chorus
Bass Solo
Intro & Verse

Key:
(x16) Play previous Note 16 times
(x4)  Play previous Note 4 times
~     Let ring
Suggest correction
Give kudos to tab author, rate the tab!
1 2 3 4 5
comments
print report bad tab
guest
You may want to rate the tab now too:
select rating
Wanna post a correction for this tab? Suggest correction