Oops, an error
Loading. Please wait.

The Red Sky - Open Heart Romance Tab

142 views 1 this week
no commentswrite comment
1 2 3 4 5
please rate
add to favorites
launch autoscroll
font size
0
reset
how to read this tab
guitar tuner
Tab Pro tools
  • play this tab
  • loop segment
  • change instrument
  • show fretboard
  • metronome
×
Best way to learn
"The Red Sky - Open Heart Romance"
Autoscroll
slow
fast
+/-
esc
set tempo
stop
Difficulty
novice
-------------------------------------------------------------------------------
                             Open Heart Romance- The Red Sky
-------------------------------------------------------------------------------
www.myspace.com/theredsky

Tuning:Drop D half step down 

intro (Pull offs lead to open string..)
e|---------------------------------------------------------------------------|
B|---------------------------------------------------------------------------|
G|---------------------------------------------------------------------------|
D|-0-0-0---8p-7p-8p-10p-8p-7p-5p-7p-5p-3p-5p-2-------------------------------|
A|-0-0-0---------------------------------------------------------------------|
E|-0-0-0---------------------------------------------------------------------|
  ooooooooooooooooooooooooh
e|---------------------------------------------------------------------------|
B|---------------------------------------------------------------------------|
G|---------------------------------------------------------------------------|
D|-0-0-0---8p-7p-8p-10p-8p-7p-5p-7p-5p-3p-5----------------------------------|
A|-0-0-0---------------------------------------------------------------------|
E|-0-0-0---------------------------------------------------------------------|
yeaaaaaaaaaaaaaaaaaaaaaaaaaaah

  Guitar 2 
e|---------------------------------------------------------------------------|
B|-----------------------------------------------------------------------6---|
G|----------------------------------------------------------------------9-9--|
D|-0-0-00-------------------------------0-0-00--------------------0-0-0------|
A|-0-0-00-------------------------------0-0-00--------------------0-0-0------|
E|-0-0-00-------------------------------0-0-00--------------------0-0-0------|
 you cant keep the sun down

e|---------------------------------------------------------------------------|
B|--------6----------6------------------------6-----------6------------------|
G|-------9-9--------9-9----------------------9-9---------9-9-----------------|
D|-0-0-00-----0-0-00------8888-3333--0-0-00------0-0-00--------3333-8888-----|
A|-0-0-00-----0-0-00------8888-3333--0-0-00------0-0-00--------3333-8888-----|
E|-0-0-00-----0-0-00------8888-3333--0-0-00------0-0-00--------3333-8888-----|
 x2
 
 guitar 1
e|---------------------------------------------------------------------------|
B|---------------------------------------------------------------------------|
G|---------------------------------------------------------------------------|
D|000000-333-888---000000--555555--------------------------------------------|
A|000000-333-888---000000--333333--------------------------------------------|
E|000000-333-888---000000--222222--------------------------------------------|
 
 we look so good...
guitar 2
e|---------------------------------------------------------------------------|
B|---------------------------------------------------------------------------|
G|----------------10-10-10-14-14-14-\-12-12-12-12-12-12----------------------|
D|000000-333-888---x-x-x---x--x--x----x--x--x--x--x--x-----------------------|
A|000000-333-888---8-8-8-/-12-12-12-\-10-10-10-10-10-10----------------------|
E|000000-333-888-------------------------------------------------------------|

bridge
e|---------------------------------------------------------------------------|
B|---------6---------------6-------------------------------------------------|
G|--------9--9-----------9---------------------------------------------------|
D|0-0-00---------0-0-00------------------------------------------------------|
A|0-0-00----8----0-0-00------8-----------------------------------------------|
E|0-0-00---------0-0-00------------------------------------------------------|
  guitar 1       guitar 2

outro same as intro
during last chorus, lead intro is just modified a little.
that should be most of it.
Enjoy!

| /  slide up
| \  slide down
| h  hammer-on
| p  pull-off
| ~  vibrato
| +  harmonic
| x  Mute note
===============================================================================
comments
We did not receive enough feedback on this tab! Please rate:
print report bad tab
1 2 3 4 5
I want to post or [tab]
guest
You may want to rate the tab now too:
select rating
Please do not post tabs as comments. Select "correction" instead!