Oops, an error
Loading. Please wait.

The Redeemed Band - Agape Tab

21,172 views 81 this week
no commentswrite comment
1 2 3 4 5
2 more votes to show rating
add to favorites
launch autoscroll
font size
0
reset
how to read this tab
guitar tuner
Autoscroll
slow
fast
+/-
esc
set tempo
stop
Help us to improve Ultimate-Guitar.com Take our survey!
×
Author
Difficulty
                                                      AGAPE
                                               ~The Redeemed Band~


Verse I(chords)
*pakinggan nyu na lang ung song para makuha nyu ung strumming pattern
|------------------|
|------------------|
|-999-666----------| 2x
|-999-666-666-777--|
|-777-444-666-777--|
|---------444-555--|

Refrain(chords)
*mag-iiba na ung strumming nya dito...
|----------|
|----------|
|----------| 2x Then, Pause
|-666-777--|
|-666-777--|
|-444-555--|

Chorus(chords)
|------------------|
|------------------|
|-999-666----------| 2x
|-999-666-666-777--|
|-777-444-666-777--|
|---------444-555--|
**...mahal kita(tatlong bagsak ng strum)pero mas mahal ko sya

(lead)

Verse II(chords)
|------------------|
|------------------|
|-999-666----------| 2x
|-999-666-666-777--|
|-777-444-666-777--|
|---------444-555--|

Verse II(guitar 2, plucking)
*sa part na 'to, naka flat na ung lahat ng chords...
|---------7-| |---------4-| |---------4-| |---------7-|
|-------7---| |-------4---| |-------4---| |-------7---|
|-----9-----| |-----6-----| |-----4-----| |-----7-----| 2x
|---9-------| |---6-------| |---6-------| |---9-------|
|-7---------| |-4---------| |-6---------| |-9---------|
|-----------| |-----------| |-----------| |-----------|

(then repeat refrain and chorus)

Bridge
|-------------------------| |-----------------|
|-------------------------| |-----------------|
|-666-------------999/888-| |-666-------------|
|-666-666-777-999-999/888-| |-666-666-777-999-|
|-444-666-777-999-777/666-| |-444-666-555-999-|
|-----444-555-777---------| |-----444-555-777-|

(Adlib)
sorry, di ko pa kasi alam ung lead ng song na 'to eh...

then, pagkatapos ng adlib,uulitin lang yung refrain pero tag-iisang strum na lang... 
drum roll, tapos yun chorus ulit. same chords pa rin. tapos play mo lang ung chords ng 
2x hanggang outro na un...

Lyrics:
ayokong iwan ka,
ngunit wala naman akong magagawa.
alam ko na ayaw mo rin,
ngunit ito ang dapat nating gawin...

Refrain:
Masakit man ito
kailangan kong lumayo

Chorus:
Dahil may mas mahalaga
kaysa sa 'ting nadarama
at hindi itong damdamin
ang dapat nating unahin
may tamang panahon
ngunit 'di pa yon ngayon
at sana ay malaman mong mahal kita,
pero mas mahal ko siya

(lead)

Di sapat na dahilan
ang pag-sintang wala namang kabuluhan
upang ating ipagpalit
sa tungkulin na ating nakamit

(repeat refrain and chorus)

Bridge:
Minsan kailangan ding
wag nating sundin,
ang tibok nitong puso
sana kahit na magkalayo
ay 'wag tayong hihinto...

(Adlib)

masakit man ito, kailangan kong lumayo...

Dahil may mas mahalaga
kaysa sa 'ting nadarama
at hindi itong damdamin
ang dapat nating unahin
may tamang panahon
ngunit 'di pa yon ngayon
at sana ay malaman mong mahal kitaaaaaa
may mas mahalaga
kaysa sa 'ting nadarama
at hindi itong damdamin
ang dapat nating unahin
may tamang panahon
ngunit 'di pa yon ngayon
at sana ay malaman mong mahal kita,
pero mas mahal ko siya...

mas mahal ko sya...
mas mahal ko sya.

*NOTE:
First time kong gumawa ng tab.. so sana magustuhan nyo to.. sobrang madali lang tong 
na'to. Kung may mga corrections or comments kayo, e-mail nyu lang ako>>> 
lorman_manansala@yahoo.com
Sa mga nakakaalam nga pala ng Adlib ng Agape, please inform me! Gusto ko talagang mabuo 
kanta na to eh!! so yun lang.. please rate it!!

GOD BLESS YOU and EnjoY!!
Suggest correction
Give kudos to tab author, rate the tab!
1 2 3 4 5
comments
print report bad tab
guest
You may want to rate the tab now too:
select rating
Wanna post a correction for this tab? Suggest correction