Oops, an error
Loading. Please wait.

The Regal Beagle Band - The Ravine Bass Tab

42 views 3 this week
no commentswrite comment
1 2 3 4 5
3 more votes to show rating
add to favorites
launch autoscroll
font size
0
reset
guitar tuner
Autoscroll
slow
fast
+/-
esc
set tempo
stop
Help us to improve Ultimate-Guitar.com Take our survey!
×
Author
The Regal Beagle Band “The Ravine” Bass Tab 

Intro
G|-----------------------------------------------------|
D|---9-----------7-----------6-6--6---7----------------|
A|-----9-8-7/5-----7-6-5-4---------------------7-------| x2
E|-7-----------5-----------4-----4--5---5-0-000--------|

Verse 1
G|-----------------------------------------------------|
D|---9-----------7-----------6-6--6---7---7---8---8----|
A|-----9-8-7/5-----7-6-5-4-----------------------------|
E|-7-----------5-----------4-----4--5---5---6---6------|

G|-----------------------------------------------------|
D|---9-----------7-----------6-6--6--------------------|
A|-----9-8-7/5-----7-6-5-4--------------------7--------|
E|-7-----------5-----------4-----4--0-0-0x00-----------|

G|-----------------------------------------------------|
D|---9-----------7-----------6-6--6---7----------------|
A|-----9-8-7/5-----7-6-5-4---------------------7-------| 
E|-7-----------5-----------4-----4--5---5-0-000--------|

Verse 2
G|-----------------------------------------------------|
D|---9-----------7-----------6-6--6---7---7---8---8----|
A|-----9-8-7/5-----7-6-5-4-----------------------------|
E|-7-----------5-----------4-----4--5---5---6---6------|

G|-----------------------------------------------------|
D|---9-----------7-----------6-6--6---7----------------|
A|-----9-8-7/5-----7-6-5-4--------------------7--------|
E|-7-----------5-----------4-----4--5---0x000----------|

Chorus
G|-----------------------------------------------------|
D|------------------999--------------------------------|
A|------5-5-7-7-9-------------5555-7-7-99-99-----------|
E|01-3-3----------7------3333--------------------------|

G|-----------------------------------------------------|
D|------------------999--------------------------------|
A|------5-5-7-7-9-------------5555-7xxx799999999-------|
E|01-3-3----------7------3333--------------------------|

Intro
G|-----------------------------------------------------|
D|---9-----------7-----------6-6--6---7----------------|
A|-----9-8-7/5-----7-6-5-4---------------------7-------| x2
E|-7-----------5-----------4-----4--5---5-0-000--------|

Verse 3
G|-----------------------------------------------------|
D|---9-----------7-----------6-6--6---7---7---8---8x----|
A|-----9-8-7/5-----7-6-5-4-----------------------------|
E|-7-----------5-----------4-----4--5---5---6---6------|

G|-----------------------------------------------------|
D|---9-----------7-----------6-6--6--------------------|
A|-----9-8-7/5-----7-6-5-4--------------------7--------|
E|-------------5-----------4-----4--0-0-0x00-----------|


Chorus
G|-----------------------------------------------------|
D|------------------999--------------------------------|
A|------5-5-7-7-9-------------5555-7-7-99-99-----------|
E|01-3-3----------7------3333--------------------------|

G|-----------------------------------------------------|
D|------------------999--------------------------------|
A|------5-5-7-7-9-------------5555-7xxx7999999997------|
E|01-3-3----------7------3333--------------------------|

Bridge
G|----------------------7777-----7----7----7-7-7-7-7-7-5-------|
D|-------------------------------------------------------7-5---|
A|5-5555-5555-5-5555-555-----5-55-5-55-5-55-5-5-5-5----------5-|
E|-------------------------------------------------------------|

G|------------------------------------------7-5----------|
D|----------------------------------------------7-5------|x2
A|555x5x55-0-777x7x77-0-101010x10x1010-0-55--------------|
E|-------------------------------------------------------|

G|------------------------------------------7-5----------|
D|---------------------------------------------7-5-------|
A|555x5x55-0-777x7x77-0-101010x10x1010-0-55--------7-----|
E|-------------------------------------------------------|


G|-----------7------------9---12--12--12--12-------------|
D|-------------------------------------------------------|
A|555x5x55-5---777x7x77-7---10--10--10--10---555-97------|
E|-------------------------------------------------109---|

End
G|-----------------------------------------------------|
D|---9-----------7-----------6-6--6---7----------------|
A|-----9-8-7/5-----7-6-5-4---------------------7-------| 
E|-7-----------5-----------4-----4--5---5-0-000--------|


G|-----------------------------------------------------|
D|---9-----------7-------------------------------------|
A|-----9-8-7/5-----7-6-5-------------------------------| 
E|-7-----------5-----------0~~~~~~~~~223355667/--------|

Legend:
/ Slide
X Ghost Note
~ Let Ring
Suggest correction
Give kudos to tab author, rate the tab!
1 2 3 4 5
comments
print report bad tab
guest
You may want to rate the tab now too:
select rating
Wanna post a correction for this tab? Suggest correction