Oops, an error
Loading. Please wait.

The Regulars - Stereotypical Bass Tab

112 views 1 this week
no commentswrite comment
1 2 3 4 5
2 more votes to show rating
add to favorites
launch autoscroll
font size
0
reset
guitar tuner
Autoscroll
slow
fast
+/-
esc
set tempo
stop
Help us to improve Ultimate-Guitar.com Take our survey!
×
G|------------------------|
D|---9-7------------------|
A|-------9~---7~-9--------| Intro
E|7~---------------10-7---|

G|------------------------------------------------------------------|
D|--------------9-9-9-9-7-7-7-7-------------------------------------|
A|------------------------------7-7-7-7--7-7--7-9-9-9-9-------------| Verse
E|7-7-7-7-7-7-7-7-----------------------------------------10-10-9-9-|

G|--------------------------------------------------------|
D|--------------------------------------------------------|
A|--------------------------------------------------------| Chorus
E|7--7--7-7-7-7-2--2--2-2-2-2-5--5--5-5-5-5-7--7--7-7-7-7-|


G|----------------------------------------------------------------|
D|--------------9-9-9-9-7-7-7-7-----------------------------------|
A|------------------------------7-7-7-7--7-7--7-9-9-9-9-----------| Bass Solo
E|7-7--7-7-7--7-----------------------------------------10-10-9-9-|

G|--------------------------------------------------------|
D|--------------------------------------------------------|
A|--------------------------------------------------------| Outro
E|7--7--7-7-7-7-2--2--2-2-2-2-5--5--5-5-5-5-7~------------|
Suggest correction
Give kudos to tab author, rate the tab!
1 2 3 4 5
comments
print report bad tab
guest
You may want to rate the tab now too:
select rating
Wanna post a correction for this tab? Suggest correction