Oops, an error
Loading. Please wait.

The Reject - Interlude Bass Tab

66 views 1 this week
no commentswrite comment
1 2 3 4 5
please rate
add to favorites
launch autoscroll
font size
0
reset
guitar tuner
Autoscroll
slow
fast
+/-
esc
set tempo
stop
Help us to improve Ultimate-Guitar.com Take our survey!
×
Author
Difficulty
novice
==================================================================================
Bass Tabs
==================================================================================

  0:00
G ------------------------------------------------------------------------------------------------|
D ------------------------------------------------------------------------------------------------|
A ------------------------------------------------9-----9-----9-----9-----9-----9-----9-----9-----|
E ------------------------------------------------------------------------------------------------|

  0:02
G ------------------------------------------------------------------------------------------------|
D ------------------------------------------------------------------------------------------------|
A 9-----9-----7-----7-----10----10----12----12----9-----9-----9-----9-----9-----9-----9-----9-----|
E ------------------------------------------------------------------------------------------------|

  0:05
G ------------------------------------------------------------------------------------------------|
D ------------------------------------------------------------------------------------------------|
A 9-----9-----7-----7-----10----10----12----12----------------------------------------------------|
E ------------------------------------------------------------------------------------------------|

  0:08
G ------------------------------------------------------------------------------------------------|
D ------------------------------------------------------------------------------------------------|
A ------------------------------------------------------------------------------------------------|
E ------------------------------------------------------------------------------------------------|

  0:11
G ------------------------------------------------------------------------------------------------|
D ------------------------------------------------------------------------------------------------|
A ------------------------------------------------------------------------------------------------|
E ------------------------------------------------3-----3-----3-----5-----5-----5-----5-----5-----|

  0:14
G ------------------------------------------------------------------------------------------------|
D ------------------------------------------------------------------------------------------------|
A 5-----5-----5-----5-----5-----5-----5-----------------------------------------------------------|
E ------------------------------------------------3-----3-----3-----5-----5-----5-----5-----5-----|

  0:16
G ------------------------------------------------------------------------------------------------|
D ------------------------------------------------------------------------------------------------|
A 5-----5-----5-----5-----5-----5-----5-----------------------------------------------------------|
E ------------------------------------------------------------------------------------------------|

  0:19
G ------------------------------------------------------------------------------------------------|
D ------------------------------------------------------------------------------------------------|
A ------------------------------------------------------------------------------------------------|
E ------------------------------------------------3-----3-----3-----5-----5-----5-----5-----5-----|

  0:22
G ------------------------------------------------------------------------------------------------|
D ------------------------------------------------------------------------------------------------|
A 5-----5-----5-----5-----5-----5-----5-----------------------------------------------------------|
E ------------------------------------------------3-----3-----3-----5-----5-----5-----5-----5-----|

  0:25
G ------------------------------------------------------------------------------------------------|
D ------------------------------------------------------------------------------------------------|
A 5-----5-----5-----5-----5-----5-----5-----------------------------------------------------------|
E ------------------------------------------------------------------------------------------------|

  0:28
G ------------------------------------------------------------------------------------------------|
D ------------------------------------------------------------------------------------------------|
A ------------------------------------------------------------------------------------------------|
E ------------------------------------------------------------------------------------------------|

  0:31
G ------------------------------------------------------------------------------------------------|
D ------------------------------------------------------------------------------------------------|
A ------------------------------------------------------------------------------------------------|
E ------------------------------------------------------------------------------------------------|

  0:33
G ------------------------------------------------------------------------------------------------|
D ------------------------------------------------------------------------------------------------|
A ------------------------------------------------------------------------------------------------|
E ------------------------------------------------------------------------------------------------|

  0:36
G ------------------------------------------------------------------------------------------------|
D ------------------------------------------------------------------------------------------------|
A ------------------------------------------------------------------------------------------------|
E ------------------------------------------------0-----0-----0-----------3-----3-----3-----------|

  0:39
G ------------------------------------------------------------------------------------------------|
D ------------------------------------------------------------------------------------------------|
A ------------------------------------------------------------------------------------------------|
E 5-----5-----5-----5--5--5-----5-----5-----------0-----0-----0-----------3-----3-----3-----------|

  0:42
G ------------------------------------------------------------------------------------------------|
D ------------------------------------------------------------------------------------------------|
A ------------------------------------------------------------------------------------------------|
E 5-----5-----5-----5--5--5-----5-----5-----------------------------------------------------------|

  0:45
G ------------------------------------------------------------------------------------------------|
D ------------------------------------------------------------------------------------------------|
A ------------------------------------------------------------------------------------------------|
E ------------------------------------------------------------------------------------------------|

  0:47
G ------------------------------------------------------------------------------------------------|
D ------------------------------------------------------------------------------------------------|
A ------------------------------------------------------------------------------------------------|
E ------------------------------------------------------------------------------------------------|

  0:50
G ------------------------------------------------------------------------|
D ------------------------------------------------------------------------|
A ------------------------------------------------------------------------|
E ------------------------------------------------------------------------|
Suggest correction
Give kudos to tab author, rate the tab!
1 2 3 4 5
comments
print report bad tab
guest
You may want to rate the tab now too:
select rating
Please do not post tabs as comments. Select "correction" instead!