Oops, an error
Loading. Please wait.

The Reject - Last Chance Bass Tab

97 views 1 this week
no commentswrite comment
1 2 3 4 5
please rate
add to favorites
launch autoscroll
font size
0
reset
guitar tuner
Autoscroll
slow
fast
+/-
esc
set tempo
stop
Help us to improve Ultimate-Guitar.com Take our survey!
×
Author
Difficulty
intermediate
==================================================================================
Bass Tabs
==================================================================================

  0:00
G ------------------------------------------------------------------------------------------------|
D ------------------------------------------------------------------------------------------------|
A ------------------------------------------------------------------------------------------------|
E ------------------------------------------------------------------------------------------------|

  0:02
G ------------------------------------------------------------------------------------------------|
D ------------------------------------------------------------------------------------------------|
A ------------------------------------------------5-----------5-----------------------------------|
E 7-----------7-----------7-----------7-----------------------------------3-----------3-----------|

  0:05
G ------------------------------------------------------------------------------------------------|
D ------------------------------------------------------------------------------------------------|
A ------------------------------------------------5-----------5-----------------------------------|
E 7-----------7-----------7-----------7-----------------------------------3-----------3-----------|

  0:08
G ------------------------------------------------------------------------------------------------|
D ------------------------------------------------------------------------------------------------|
A ------------------------------------------------5-----------5-----------------------------------|
E 7-----------7-----------7-----------7-----------------------------------3-----------3-----------|

  0:11
G ------------------------------------------------------------------------------------------------|
D ------------------------------------------------------------------------------------------------|
A ------------------------------------------------5-----5-----5-----5-----5-----5-----5-----5-----|
E 7-----7-----7-----7-----7-----7-----7-----7-----------------------------------------------------|

  0:14
G ------------------------------------------------------------------------------------------------|
D ------------------------------------------------------------------------------------------------|
A ------------------------------------------------------------------------------------------------|
E 3-----3-----3-----3-----3-----3-----3-----3-----5-----5-----5-----5-----5-----5-----5-----5-----|

  0:16
G ------------------------------------------------------------------------------------------------|
D ------------------------------------------------------------------------------------------------|
A ------------------------------------------------5-----5-----5-----5-----5-----5-----5-----5-----|
E 7-----7-----7-----7-----7-----7-----7-----7-----------------------------------------------------|

  0:19
G ------------------------------------------------------------------------------------------------|
D ------------------------------------------------------------------------------------------------|
A ------------------------------------------------------------------------------------------------|
E 3-----3-----3-----3-----3-----3-----3-----3-----5-----5-----5-----5-----5-----5-----5-----5-----|

  0:22
G ------------------------------------------------------------------------------------------------|
D ------------------------------------------------------------------------------------------------|
A ------------------------------------------------5-----5-----5-----5-----5-----5-----5-----5-----|
E 7-----7-----7-----7-----7-----7-----7-----7-----------------------------------------------------|

  0:25
G ------------------------------------------------------------------------------------------------|
D ------------------------------------------------------------------------------------------------|
A ------------------------------------------------------------------------------------------------|
E 3-----3-----3-----3-----3-----3-----3-----3-----5-----5-----5-----5-----5-----5-----5-----5-----|

  0:28
G ------------------------------------------------------------------------------------------------|
D ------------------------------------------------------------------------------------------------|
A ------------------------5-----------------------------------------------------------------------|
E 7-----------------------------------------------5-----5--5-----5--3-----5-----5--5-----5--3-----|

  0:31
G ------------------------------------------------------------------------------------------------|
D ------------------------------------------------------------------------------------------------|
A ------------------------------5-----------------------------------------------------------------|
E 7-----------7-----------------------------3-----------3-----3--3--3--3--3-----3--3--5-----5--5--|

  0:33
G ------------------------------------------------------------------------------------------------|
D ------------------------------------------------------------------------------------------------|
A ------------------------5-----------------------------------------------------------------------|
E 7-----------------------------------------------5-----5--5-----5--3-----5-----5--5-----5--3-----|

  0:36
G ------------------------------------------------------------------------------------------------|
D ------------------------------------------------------------------------------------------------|
A ------------------------------5-----------------------------------------------------------------|
E 7-----------7-----------------------------3-----------3-----3--3--3--3--3-----3--3--5-----5--5--|

  0:39
G ------------------------------------------------------------------------------------------------|
D ------------------------------------------------------------------------------------------------|
A ------------------------5--5--5--5--------------------------------------5--5--5--5--------------|
E 7--7--7--7--3--3--3--3--------------5--5--5--5--7--7--7--7--3--3--3--3--------------5--5--5--5--|

  0:42
G ------------------------------------------------------------------------------------------------|
D ------------------------------------------------------------------------------------------------|
A ------------------------5--5--5--5--------------------------------------5--5--5--5--------------|
E 7--7--7--7--3--3--3--3--------------5--5--5--5--7--7--7--7--3--3--3--3--------------5--5--5--5--|

  0:45
G ------------------------------------------------------------------------------------------------|
D ------------------------------------------------------------------------------------------------|
A ------------------------5--5--5--5--------------------------------------5--5--5--5--------------|
E 7--7--7--7--3--3--3--3--------------5--5--5--5--7--7--7--7--3--3--3--3--------------5--5--5--5--|

  0:47
G ------------------------------------------------------------------------------------------------|
D ------------------------------------------------------------------------------------------------|
A ------------------------5--5--5--5--------------------------------------5--5--5--5--------------|
E 7--7--7--7--3--3--3--3--------------5--5--5--5--7--7--7--7--3--3--3--3--------------5--5--5--5--|

  0:50
G ------------------------------------------------------------------------------------------------|
D ------------------------------------------------------------------------------------------------|
A ------------------------------------------------------------------------------------------------|
E ------------------------------------------------------------------------------------------------|

  0:53
G ------------------------------------------------------------------------------------------------|
D ------------------------------------------------------------------------------------------------|
A ------------------------------------------------------------------------------------------------|
E ------------------------------------------------------------------------------------------------|

  0:56
G ------------------------------------------------------------------------------------------------|
D ------------------------------------------------------------------------------------------------|
A ------------------------------------------------------------------------------------------------|
E 7-----------------------------------------------------------------------------------------------|

  0:59
G ------------------------------------------------------------------------------------------------|
D ------------------------------------------------------------------------------------------------|
A ------------------------------------------------------------------------------------------------|
E ------------------------------------------------------------------------------------------------|

  1:02
G ------------------------------------------------------------------------------------------------|
D ------------------------------------------------------------------------------------------------|
A ------------------------------------------------5-----5-----5-----5-----5-----5-----5-----5-----|
E 7-----7-----7-----7-----7-----7-----7-----7-----------------------------------------------------|

  1:04
G ------------------------------------------------------------------------------------------------|
D ------------------------------------------------------------------------------------------------|
A ------------------------------------------------------------------------------------------------|
E 3-----3-----3-----3-----3-----3-----3-----3-----5-----5-----5-----5-----5-----5-----5-----5-----|

  1:07
G ------------------------------------------------------------------------------------------------|
D ------------------------------------------------------------------------------------------------|
A ------------------------------------------------------------------------------------------------|
E ------------------------------------------------------------------------------------------------|

  1:10
G ------------------------------------------------------------------------------------------------|
D ------------------------------------------------------------------------------------------------|
A ------------------------------------------------5-----5-----5-----5-----5-----5-----5-----5-----|
E 7-----7-----7-----7-----7-----7-----7-----7-----------------------------------------------------|

  1:13
G ------------------------------------------------------------------------------------------------|
D ------------------------------------------------------------------------------------------------|
A ------------------------------------------------------------------------------------------------|
E ------------------------------------------------------------------------------------------------|

  1:16
G ------------------------------------------------------------------------------------------------|
D ------------------------------------------------------------------------------------------------|
A ------------------------------------------------------------------------------------------------|
E 2-----2-----2-----2-----2-----2-----2-----2-----2-----2-----2-----2-----2-----2-----2-----2-----|

  1:19
G ------------------------------------------------------------------------------------------------|
D ------------------------------------------------------------------------------------------------|
A ------------------------------------------------------------------------------------------------|
E 4-----4-----4-----4-----4-----4-----4-----4-----4-----4-----4-----4-----4-----4-----4-----4-----|

  1:21
G ------------------------------------------------------------------------------------------------|
D ------------------------------------------------------------------------------------------------|
A ------------------------------------------------------------------------------------------------|
E 6-----6-----6-----6-----6-----6-----6-----6-----6-----6-----6-----6-----6-----6-----6-----6-----|

  1:24
G ------------------------------------------------------------------------------------------------|
D ------------------------------------------------------------------------------------------------|
A ------------------------------------------------------------------------------------------------|
E 7-----7-----7-----7-----7-----7-----7-----7-----7-----7-----7-----7-----7-----7-----7-----7-----|

  1:27
G ------------------------------------------------------------------------------------------------|
D ------------------------------------------------------------------------------------------------|
A ------------------------------------------------------------------------------------------------|
E ------------------------------------------------------------------------------------------------|

  1:30
G ------------------------------------------------|
D ------------------------------------------------|
A ------------------------------------------------|
E ------------------------------------------------|
Suggest correction
Give kudos to tab author, rate the tab!
1 2 3 4 5
comments
print report bad tab
guest
You may want to rate the tab now too:
select rating
Wanna post a correction for this tab? Suggest correction