Oops, an error
Loading. Please wait.

The Renegade Youth - Missing You Tab

84 views 1 this week
no commentswrite comment
1 2 3 4 5
please rate
add to favorites
launch autoscroll
font size
0
reset
how to read this tab
guitar tuner
Autoscroll
slow
fast
+/-
esc
set tempo
stop
Help us to improve Ultimate-Guitar.com Take our survey!
×
Contributor
Difficulty
intermediate
The Renegade Youth
    Missing You

h=hammer
p=pull off
/=slide
b=bend

it's standard tuning

intermediate playing

Starts out with acoustic

    Em
E---0---0-0-0------------3-3-3-3---------2-2-2-----------0-0-0-0--|
B---0---0-0-0-------0----0-0-0-0---------3-3-3-----------1-1-1-1--|
G---0-0-0-----0-0h2------0-----0-0h2-0---2-----2-0h2-0---0-0-0-0--|
D---2-2-2-----2--------0---------------0-------0---------2--------|
A---2-2-2-----2--------2-------------------------------3-3--------|
E---0-0-0-----0--------3------------------------------------------|

E-----------3-3-3-3---------2-2-2-----------3-3-3-3-------2-2-2---|
B-------0---0-0-0-0---------3-3-3-------0---0-0-0-0-------3-3-3---|
G---0h2-----0-----0-0h2-0---2-----2-0h2-----0-----0-0h2-0-2-----2-|
D---------0---------------0-------0-------0---------------------0-|
A---------2-------------------------------2-----------------------|
E---------3-------------------------------3-----------------------|
                                                                x2
E---3-3-3-3-3-3--2-2-2-2-2-2--------------------------------------|
B---0-0-0-0-0-0--3-3-3-3-3-3--------------------------------------|
G---0-0-0-0-0-0--2-2-2-2-2-2--------------------------------------|
D---0-0-0-0-0-0--0-0-0-0-0-0--------------------------------------|
A---2-2-2-2-2-2---------------------------------------------------|
E---3-3-3-3-3-3---------------------------------------------------|
                                                                x2
E---3-3--2-2-2-2----0-0--2-2-2-2----------------------------------|
B---0-0--3-3-3-3----1-1--2-3-3-3----------------------------------|
G---0-0--2-2-2-2----0-0--2-2-2-2----------------------------------|
D---0-0--0-0-0-0-0--2-2--0-0-0-0-0--------------------------------|
A---2-2-------------3-3-------------------------------------------|
E---3-3-----------------------------------------------------------|

Then comes in the electric guitar with distortion!
                                                                x4
E-----------------------------------------------------------------|
B-----------------------------------------------------------------|
G--------7-7-7-7--5-5--7-7-7-7------------------------------------|
D---5-5--7-7-7-7--5-5--7-7-7-7------------------------------------|
A---5-5--5-5-5-5--3-3--5-5-5-5------------------------------------|
E---3-3-----------------------------------------------------------|
 
verse 1
                                                               x4
E-----------------------------------------------------------------|
B-----------------------------------------------------------------|
G--------7-7-7-7-------5-5-5-5------------------------------------|
D---5-5--7-7-7-7--5-5--5-5-5-5------------------------------------|
A---5-5--5-5-5-5--5-5--3-3-3-3------------------------------------|
E---3-3-----------3-3---------------------------------------------|
 
Chorus
                                                               x4
E-----------------------------------------------------------------|
B-----------------------------------------------------------------|
G--------7-7-7-7--5-5--7-7-7-7------------------------------------|
D---5-5--7-7-7-7--5-5--7-7-7-7------------------------------------|
A---5-5--5-5-5-5--3-3--5-5-5-5------------------------------------|
E---3-3-----------------------------------------------------------|

You repeat verse 1 then you play the chorus once more then the solo

solo:

E-----------------------------------------------3-5-b5b5b5b5b5----|
B---------------------------------------------36------------------|
G-------------------------------------------35--------------------|
D-------------------3-5-3-b5b5b5b5b5-5-3-3h5----------------------|
A---------3-5-33-3h5----------------------------------------------|
E---3--3h6--------------------------------------------------------|

E---3-5-7781087-----7781087-15-15-15-15-17-17-17h18-15------------|
B--------------8-10-----------------------------------15-17h18-15-|
G-----------------------------------------------------------------|
D-----------------------------------------------------------------|
A-----------------------------------------------------------------|
E-----------------------------------------------------------------|

E-----------------------------------------------------------------|
B---13-15h16-13-------10-10-12-13-12-13-15-13-13-15/17-15-13-15---|
G---------------12-14---------------------------------------------|
D-----------------------------------------------------------------|
A-----------------------------------------------------------------|
E-----------------------------------------------------------------|

E-----------------------15-15-17-18-17-15-17----------------------|
B---12-13-15-13-12--------------------------15-15-17-18-17-15-17--|
G-----------------12-14-------------------------------------------|
D-----------------------------------------------------------------|
A-----------------------------------------------------------------|
E-----------------------------------------------------------------|

E-----------------------------15-15-17-18-17-18-20-18-18-17-18----|
B---13-13-15-17-15-13-15------------------------------------------|
G-----------------------12-14-------------------------------------|
D-----------------------------------------------------------------|
A-----------------------------------------------------------------|
E-----------------------------------------------------------------|

E---18h20-17-18h20-17-18h20-17-18h20-17-20-20-b20-15-15-17-18-17--|
B-----------------------------------------------------------------|
G-----------------------------------------------------------------|
D-----------------------------------------------------------------|
A-----------------------------------------------------------------|
E-----------------------------------------------------------------|

E---17-18-20-18/20-15---------------------------------------------|
B-----------------------------------------------------------------|
G-----------------------------------------------------------------|
D-----------------------------------------------------------------|
A-----------------------------------------------------------------|
E--------------------15/3-----------------------------------------|

Then you play the main riff four times then you hold the last chord then
as it grows more quiet you can hear the main riff on acoustic. I hope you
enjoyed the tab! This is my first tab.
comments
We did not receive enough feedback on this tab! Please rate:
print report bad tab
1 2 3 4 5
I want to post or [tab]
guest
You may want to rate the tab now too:
select rating
Please do not post tabs as comments. Select "correction" instead!