Oops, an error
Loading. Please wait.

The Riptide Movement - Hot Tramp Tab

928 views 1 this week
no commentswrite comment
1 2 3 4 5
please rate
add to favorites
launch autoscroll
font size
0
reset
how to read this tab
guitar tuner
Autoscroll
slow
fast
+/-
esc
set tempo
stop
Help us to improve Ultimate-Guitar.com Take our survey!
×
Author
Difficulty
NiallMH 68
novice
|-------------------------------------------------------------------------------
                             HOT TRAMP - The Riptide Movement
-------------------------------------------------------------------------------
Tabbed by: Niall Houlihan 1/9/2010
Email: niallhoulihan14@hotmail.com

Tuning: Standard

I havn't figured out the Lead Guitar yet so make that up :)

The whole song just follows the same chord progression:  G - - -  G - - -      F - - -   E -   F -

(Bass Starts)
G|----------------------------------------------------------------------------|
D|-------5--------5---------5--------5------------5--------5----------5-----5-|
A|----------------------------------------------------------------------------|
E|---3--------3--------3---------3-----------3---------3---------3-------3----|

(Guitar Enters)


e|-----------------------------------------------------------------------------------|
B|-----------------------------------------------------------------------------------|
G|----0~~~~-----2--------------------------------------------------------------------|
D|----------------3------------------------------------------------------------------|
A|-------------------3~~~------------------------------------------------------------|
E|-----------------------------------------------------------------------------------|


This is the main riff that repeats

     G                                        G
e|------------------------------------------------------------------------------------|
B|------------------------------------------------------------------------------------|
G|---0-----3h0--------0-0---0--5--0--3---------0-------3h0-----------0-0---0-5--0--3--|
D|--------------3----------------------------------------------3----------------------|
A|------------------------------------------------------------------------------------|
E|------------------------------------------------------------------------------------|


   F                       E
e|-----------------------------------------------------------------------------------|
B|-----------------------------------------------------------------------------------|
G|----------5--------3-------------5-------3---------0----3h0------0-0---0--5--0--3--|
D|---3--3-------3--------3/2---2-------2------------------------3--------------------|
A|-----------------------------------------------------------------------------------|
E|-----------------------------------------------------------------------------------|


VERSES:

 G - - -  G - - - G - - - G - - -

 G - - -  G - - - F - - - E - F -

CHORUS:

 G - - - G - - - F - - - E - F -


 G - - - G - - - F - - - E - F -

 (Back to main riff )


BRIDGE:


VERSE:


The rest is just made up of what already up there ^^
Suggest correction new What's this?
You can suggest a correction to this tab. Community and Mods will review your correction and vote to approve or reject it.
comments
We did not receive enough feedback on this tab! Please rate:
print report bad tab
1 2 3 4 5
guest
You may want to rate the tab now too:
select rating
Please do not post tabs as comments. Select "correction" instead!