Oops, an error
Loading. Please wait.

The Riptide Movement - Pale Green Eyes Tab

279 views 1 this week
no commentswrite comment
1 2 3 4 5
3 more votes to show rating
add to favorites
launch autoscroll
font size
0
reset
how to read this tab
guitar tuner
Autoscroll
slow
fast
+/-
esc
set tempo
stop
Help us to improve Ultimate-Guitar.com Take our survey!
×
Author
Difficulty
intermediate
-------------------------------------------------------------------------------
                             PALE GREEN EYES - The Riptide Movement
-------------------------------------------------------------------------------
Tabbed by: Niall H
Email: niallhoulihan14@hotmail.com

Tuning: Standard
This Isnt perfect , but its the right idea you just gotta work it out a bit yourself..

INTRO

e.----------------------------------------------------------------------------|
B.----------------------------------------------------------------------------|
G|----------------------------------------------------------------------------|
D|--------0---------0-------------0----------0-------- (Four Times Til Piano--|
A|----2-------2h4------------------------0------0-----------------------------|
E|------------------------0h2---------3---------------------------------------|


VERSE
e|--------------------------------------------------------------------------------------|
B|--------------------------------------------------------------------------------------|
G|--------------------------------------------------------------------------------------|
D|---------0----------0--------------0----------0----------0--------0-------0--------0--|
A|-----2--------22----------2/4-----------44--------------------------------------------|
E|---------------------------------------------------0h2-------22-----2/3---------33----|


e|-------------------------------------------------------------------------------------|
B|-------------------------------------------------------------------------------------|
G|-------------------------------------------------------------------------------------|
D|-------------0-----------0------------0---------0-----------0--------0-------0----0--|
A|-------2-----------22---------2/4----------44----------------------------------------|
E|----------------------------------------------------0h2---------22------2/3----33----|

(x3)

Every So often it goes
e|-------------------------------------------|
B|-------------------------------------------|
G|-------------------------------------------|
D|-----------4-------5-----------------------|
A|-----------4-------5-----------------------|
E|-------------------------------------------|


It kinda keeps around that shaped but you got to work where it goes yourself..
Suggest correction
Give kudos to tab author, rate the tab!
1 2 3 4 5
comments
print report bad tab
guest
You may want to rate the tab now too:
select rating
Wanna post a correction for this tab? Suggest correction