Oops, an error
Loading. Please wait.

The Rosie Way - Dadgad Tab

3,230 views 1 this week
no commentswrite comment
1 2 3 4 5
please rate
add to favorites
launch autoscroll
font size
0
reset
how to read this tab
guitar tuner
Tab Pro tools
  • play this tab
  • loop segment
  • change instrument
  • show fretboard
  • metronome
×
Best way to learn
"The Rosie Way - Dadgad"
Autoscroll
slow
fast
+/-
esc
set tempo
stop
Contributor
Difficulty
Tuning
intermediate
D A D G B E
this is a official tab by The Rosie Way - DADGAD. Made by Brett Tootle, rhythm guitarist. 

Tuning: DADGAD on guitar 2 and 3.
Lead Guitar Tuning: Drop D. 

intro verse: guitar 2.  
d----------------------------------|
a--------------8-------------------|
g--------------7-------------------|
d--------0-----0--------7----------| x8
a------7---0---------------------5-|
d----8-------0---0-0--0---0-0--0---|

intro verse: lead guitar. 
e----------------------------------|
b----------------------------------|
g----------------------------------|
d--8-8-8-8-0-0-0-0-7-7-7-7-5-5-5-5-| x6
a--8-8-8-8-0-0-0-0-7-7-7-7-5-5-5-5-|
d--8-8-8-8-0-0-0-0-0-0-0-0-0-0-0-0-|

intro verse: guitar 3. 
d--7-7-7-7-7-7-7-7-7-7-7-7-5-5-5-5-|
a--9-9-9-9-9-9-9-9-0-0-0-0-0-0-0-0-|
g--7-7-7-7-7-7-7-7-7-7-7-7-5-5-5-5-|
d--0-0-0-0-0-0-0-0-0-0-0-0-0-0-0-0-| x7
a----------------------------------|
d----------------------------------|

chorus: lead guitar and guitar 2. 
d--------------------------|
a--------------------------|
g--------------------------|
d--2-2-2-2-2-2-5-5-5-5-5-5-|
a--2-2-2-2-2-2-5-5-5-5-5-5-|
d--0-0-0-0-2-2-5-5-5-5-5-5-|

pre-verse: lead guitar.
e------------------------------------------------------------------|
b------------------------------------------------------------------|
g------------------------------------------------------------------|
d--5-5-5-5-5-5-5-5-7-7-7-7-7-7-7-7-3-3-3-3-3-3-3-3-5-5-5-5-5-5-5-5-| 
a--5-5-5-5-5-5-5-5-7-7-7-7-7-7-7-7-3-3-3-3-3-3-3-3-5-5-5-5-5-5-5-5-|
d--5-5-5-5-5-5-5-5-7-7-7-7-7-7-7-7-3-3-3-3-3-3-3-3-5-5-5-5-5-5-5-5-|

pre-verse: guitar 2. 
         G                 A              F              G
e--5-5-5-5-5-5-5-5-7-7-7-7-7-7-7-7-3-3-3-3-3-3-3-3-5-5-5-5-5-5-5-5-|
b--5-5-5-5-5-5-5-5-7-7-7-7-7-7-7-7-3-3-3-3-3-3-3-3-5-5-5-5-5-5-5-5-|
g--7-7-7-7-7-7-7-7-9-9-9-9-9-9-9-9-5-5-5-5-5-5-5-5-7-7-7-7-7-7-7-7-|
d--5-5-5-5-5-5-5-5-7-7-7-7-7-7-7-7-3-3-3-3-3-3-3-3-5-5-5-5-5-5-5-5-| 
a--5-5-5-5-5-5-5-5-7-7-7-7-7-7-7-7-3-3-3-3-3-3-3-3-5-5-5-5-5-5-5-5-|
d--5-5-5-5-5-5-5-5-7-7-7-7-7-7-7-7-3-3-3-3-3-3-3-3-5-5-5-5-5-5-5-5-|

brigde after 2nd chorus: guitar 3. 
d--7-7-7-7-9-9-9-9-10-10-10-10-10-10-10-10-5-5-5-5-6-6-6-6-7-7-7-7-|
a--0-0-0-0-0-0-0-0-0--0--0--0--0--0--0--0--0-0-0-0-0-0-0-0-0-0-0-0-|
g--7-7-7-7-9-9-9-9-10-10-10-10-10-10-10-10-5-5-5-5-6-6-6-6-7-7-7-7-|
d--0-0-0-0-0-0-0-0-0--0--0--0--0--0--0--0--0-0-0-0-0-0-0-0-0-0-0-0-|
a------------------------------------------------------------------|
d------------------------------------------------------------------|

solo: lead guitar.
e-------------------------------------------------------------------|
b-------------------------------------------------------------------|
g-------------------------------------------------------------------|
d-5-5-5-5-5-5-5-5-5-57-7-7-7-7-7-7-7-7-7-3-3-3-3-3-3-3-3-3-3-5-5-5-5|
a-------------------------------------------------------------------|
d-------------------------------------------------------------------|

solo: lead guitar. 
e-----------------------------------------------------------------|
b-------------------------------------6b-3-6-3---3-6p3------------|
g-----3-5-5b-3---3-5p3-------3-5p3-5-----------5-------5-3--5p3---|
d-3-5----------5-------5-3-5------------------------------------5~|
a-----------------------------------------------------------------|
d-----------------------------------------------------------------|

solo: lead guitar. 
e----------|------------------------------------------------------|
b----------|-------------------------------------6b-3-6-3---3-6p3-|
g----------|-----3-5-5b-3---3-5p3-------3-5p3-3-----------5-------|
d--3-3h5-5-|-3-5----------5-------5-3-5---------------------------|
a----------|------------------------------------------------------|
d----------|------------------------------------------------------|

solo: lead guitar.
e------------------------------------------------|
b------------------------------------------------|
g--5-3--5p3----------------------3~-3h5-3--------|
d-----------5~--3-3h5-5--3-3h5-5----------5-3-5~-|
a------------------------------------------------|
d------------------------------------------------|

chorus with outro: lead guitar and guitar 2.
d--------------------------|-----------------------------------------------|
a--------------------------|-----------------------------------------------|
g--------------------------|-----------------------------------------------|
d--2-2-2-2-2-2-5-5-5-5-5-5-|-5-5-5-5-5-5-5-5-5-5-5-5-7-7-7-7-0-0-0-0-0-0-0-|
a--2-2-2-2-2-2-5-5-5-5-5-5-|-5-5-5-5-5-5-5-5-5-5-5-5-7-7-7-7-7-7-7-7-7-7-0-|
d--0-0-0-0-2-2-5-5-5-5-5-5-|-5-5-5-5-5-5-5-5-5-5-5-5-7-7-7-7-8-8-8-8-8-8-0-|
comments
We did not receive enough feedback on this tab! Please rate:
print report bad tab
1 2 3 4 5
I want to post or [tab]
guest
You may want to rate the tab now too:
select rating
Please do not post tabs as comments. Select "correction" instead!