Oops, an error
Loading. Please wait.

The Royal Sons - Through And Through Tab

1,632 views 1 this week
no commentswrite comment
1 2 3 4 5
1 last vote to show rating
add to favorites
launch autoscroll
font size
0
reset
how to read this tab
guitar tuner
Autoscroll
slow
fast
+/-
esc
set tempo
stop
Help us to improve Ultimate-Guitar.com Take our survey!
×
Author
Difficulty
Tuning: Standard
s=slide to

After discovering The Royal Sons, I instantly fell in love with their music and that led
me to want to play it. And after talking to their lead guitarist, Grant Jensen, he was
kind enough to show me how to play one of my favorite songs of theirs: Through and
Through.


Throughout the song there is a lot of sliding, and you want to include the rough sound
of your finger sliding across the low E string just like in the recording.


In each verse, Grant mutes the A-string just in case it is strummed, but this is not 
completely necessary. It is easiest to pluck the low E string with your thumb, then pluck 
the G string with your middle finger, and lastly pluck the open D string with your index finger.


This next section may or may not be helpful for you; I made it for people wanting to 
practice all of the patterns/chords before learning the song or just to get better and more 
comfortable with them if they want to.

Pattern 1:

e|-------------|
B|-------------|
G|-------11----|
D|-----------0-|
A|-------------|
E|---10--------|

Pattern 2:
e|-------------|
B|-------------|
G|-------7-----|
D|-----------0-|
A|-------------|
E|---7---------|

Pattern 3:
e|------------|
B|------------|
G|---2--------|
D|------------|
A|------------|
E|---2--------|

Pattern 4:
e|------------|
B|------------|
G|---4--------|
D|------------|
A|------------|
E|---3--------|

Pattern 5:
e|------------|
B|------------|
G|---6--------|
D|------------|
A|------------|
E|---5--------|

Pattern 6:
e|------------|
B|------------|
G|---7--------|
D|------------|
A|------------|
E|---7--------|

"Ooooooo-ooh-ooooh"
Pattern 7 (walk-around):
e|------------|
B|------------|
G|------9-----|
D|----------0-|
A|------------|
E|---9--------|

Pattern 8 (walk-around):
e|------------|
B|------------|
G|------12----|
D|----------0-|
A|------------|
E|---12-------|

Pattern 9 (similar to pattern 4):
e|------------|
B|------------|
G|-------4----|
D|----------0-|
A|------------|
E|----3-------|

Pattern 10 (similar to pattern 5):
e|------------|
B|------------|
G|-------6----|
D|----------0-|
A|------------|
E|----5-------|

Intro:
e|---------------------------------------------------|
B|---------------------------------------------------|
G|-------11----------11----------11----------11------|
D|-----------0-----------0-----------0-----------0---|
A|---------------------------------------------------|
E|---10----------10----------10----------10----------|

"Took a step down this road, little did I ever know I'd fall in love."
e|-----------------------------------------------------------------------------|
B|-----------------------------------------------------------------------------|
G|-------11----------11----------11----------11-----------s7-----------7-------|
D|-----------0-----------0-----------0-----------0------------0-----------0----|
A|-----------------------------------------------------------------------------|
E|---10----------10----------10----------10-----------s7------------7----------|

e|----------------------------|
B|----------------------------|
G|-------s11----------11------|
D|-----------0-----------0----|
A|----------------------------|
E|---s10----------10----------|


"Time has past, we both grow. Life's been hard but we found hope and that's enough."
e|-----------------------------------------------------------------------------|
B|-----------------------------------------------------------------------------|
G|-------11----------11----------11----------11-----------s7-----------7-------|
D|-----------0-----------0-----------0-----------0------------0-----------0----|
A|-----------------------------------------------------------------------------|
E|---10----------10----------10----------10-----------s7------------7----------|

e|----------------------------|
B|----------------------------|
G|-------s11----------11------|
D|-----------0-----------0----|
A|----------------------------|
E|---s10----------10----------|

"Oh, oh..."
e|------------|
B|------------|
G|---2-- 4----|
D|------------|
A|------------|
E|---2---3----|


"...you are beautiful..."
e|--------------|
B|--------------|
G|---6-- 7------|
D|--------------|
A|--------------|
E|---5---7------|

"...through and through."
e|---------------------------------------------------|
B|---------------------------------------------------|
G|-------11----------11----------11----------11------|
D|-----------0-----------0-----------0-----------0---|
A|---------------------------------------------------|
E|---10----------10----------10----------10----------|

"Oh, oh..."
e|------------|
B|------------|
G|---2-- 4----|
D|------------|
A|------------|
E|---2---3----|


"...you should know..."
e|------------|
B|------------|
G|---6-- 7----|
D|------------|
A|------------|
E|---5---7----|

"...that I love you."
e|----------------------------------------------------|
B|----------------------------------------------------|
G|-------11----------11----------11----------11-------|
D|-----------0-----------0-----------0-----------0----|
A|----------------------------------------------------|
E|---10----------10----------10----------10-----------|

"Ooooooo-ooh-ooooh..."
e|-----------------------------------------------------------------------------|
B|-----------------------------------------------------------------------------|
G|-------11----------11----------s9-----------9-----------s12----------12------|
D|-----------0-----------0-----------0-----------0------------0------------0---|
A|-----------------------------------------------------------------------------|
E|---10----------10-----------s9-----------9-----------s12----------12---------|


"...together forever."
e|------------------------------------------------------------------------------|
B|------------------------------------------------------------------------------|
G|-------4-----------s6-----------s11----------11----------11----------11-------|
D|----------0-----------0--------------0-----------0-----------0-----------0----|
A|------------------------------------------------------------------------------|
E|----3-----------s5----------s10----------10----------10----------10-----------|

"Took my hand, I took yours. Promised me and then you swore we won’t give up"
e|-----------------------------------------------------------------------------|
B|-----------------------------------------------------------------------------|
G|-------11----------11----------11----------11-----------s7-----------7-------|
D|-----------0-----------0-----------0-----------0------------0-----------0----|
A|-----------------------------------------------------------------------------|
E|---10----------10----------10----------10-----------s7------------7----------|

e|----------------------------|
B|----------------------------|
G|-------s11----------11------|
D|-----------0-----------0----|
A|----------------------------|
E|---s10----------10----------|

"I carry you, you carry me. If I make up then endlessly we fall in love."
e|-----------------------------------------------------------------------------|
B|-----------------------------------------------------------------------------|
G|-------11----------11----------11----------11-----------s7-----------7-------|
D|-----------0-----------0-----------0-----------0------------0-----------0----|
A|-----------------------------------------------------------------------------|
E|---10----------10----------10----------10-----------s7------------7----------|

e|----------------------------|
B|----------------------------|
G|-------s11----------11------|
D|-----------0-----------0----|
A|----------------------------|
E|---s10----------10----------|

"Oh, oh..."
e|------------|
B|------------|
G|---2-- 4----|
D|------------|
A|------------|
E|---2---3----|


"...you are beautiful..."
e|------------|
B|------------|
G|---6-- 7----|
D|------------|
A|------------|
E|---5---7----|

"...through and through."
e|---------------------------------------------------|
B|---------------------------------------------------|
G|-------11----------11----------11----------11------|
D|-----------0-----------0-----------0-----------0---|
A|---------------------------------------------------|
E|---10----------10----------10----------10----------|

"Oh, oh..."
e|------------|
B|------------|
G|---2-- 4----|
D|------------|
A|------------|
E|---2---3----|


"...you should know..."
e|------------|
B|------------|
G|---6-- 7----|
D|------------|
A|------------|
E|---5---7----|

"...that I love you."
e|----------------------------------------------------|
B|----------------------------------------------------|
G|-------11----------11----------11----------11-------|
D|-----------0-----------0-----------0-----------0----|
A|----------------------------------------------------|
E|---10----------10----------10----------10-----------|

"I’m not searching for a perfect outcome, outcome."
e|----------------------------------------------------------------------|
B|----------------------------------------------------------------------|
G|-------4-----------4-------s6------6-----------s7-----------7---------|
D|----------0-----------0-------0-------0-----------0-----------0-------|
A|----------------------------------------------------------------------|
E|----3-----------3--------s5-------5----------s7------------7----------|

e|----------------------------|
B|----------------------------|
G|-------7------------7-------|
D|-----------0------------0---|
A|----------------------------|
E|---7------------7-----------|

"People looking at us asking: how come? How come?"
e|----------------------------------------------------------------------|
B|----------------------------------------------------------------------|
G|-------4-----------4-------s6------6-----------s7-----------7---------|
D|----------0-----------0-------0-------0-----------0-----------0-------|
A|----------------------------------------------------------------------|
E|----3-----------3--------s5-------5----------s7------------7----------|

e|----------------------------|
B|----------------------------|
G|-------7------------7-------|
D|-----------0------------0---|
A|----------------------------|
E|---7------------7-----------|

"Ooooooo-ooh-ooooh..."
e|-----------------------------------------------------------------------------|
B|-----------------------------------------------------------------------------|
G|-------11----------11----------s9-----------9-----------s12----------12------|
D|-----------0-----------0-----------0-----------0------------0------------0---|
A|-----------------------------------------------------------------------------|
E|---10----------10-----------s9-----------9-----------s12----------12---------|

"...together forever."
e|----------------------------------------------------------------------------|
B|----------------------------------------------------------------------------|
G|-------4-----------s6---------7------------7------------6-----------11------|
D|----------0-----------0-----------0------------0-----------0-----------0----|
A|----------------------------------------------------------------------------|
E|----3-----------s5---------7------------7-------------5---------10----------|

"Oh, oh..."
e|------------|
B|------------|
G|---2-- 4----|
D|------------|
A|------------|
E|---2---3----|


"...you are beautiful..."
e|------------|
B|------------|
G|---6-- 7----|
D|------------|
A|------------|
E|---5---7----|

"...through and through."
e|---------------------------------------------------|
B|---------------------------------------------------|
G|-------11----------11----------11----------11------|
D|-----------0-----------0-----------0-----------0---|
A|---------------------------------------------------|
E|---10----------10----------10----------10----------|

"Oh, oh..."
e|------------|
B|------------|
G|---2-- 4----|
D|------------|
A|------------|
E|---2---3----|


"...you should know..."
e|------------|
B|------------|
G|---6-- 7----|
D|------------|
A|------------|
E|---5---7----|

"...that I love you."
e|---------------------------------------------------------|
B|---------------------------------------------------------|
G|-------11----------11----------11----------11------------|
D|-----------0-----------0-----------0-----------0---------|
A|---------------------------------------------------------|
E|---10----------10----------10----------10----------10----|


And that's it! Hopefully this all made sense. If you need any help, e-mail me at 
pjhayton@yahoo.com or Facebook me at https://www.facebook.com/live8808.

Here is the YouTube link to the music video of the song (although at some parts he plays 
it differently than the recording) which will help a lot in learning it:
http://www.youtube.com/watch?v=oaDo_qIEy58

Here is the Facebook page of The Royal Sons:
https://www.facebook.com/TheRoyalSons

,P.J. Hayton
Suggest correction
Give kudos to tab author, rate the tab!
1 2 3 4 5
comments
print report bad tab
guest
You may want to rate the tab now too:
select rating
Wanna post a correction for this tab? Suggest correction