Oops, an error
Loading. Please wait.

The Saint Alvia Cartel - Blonde Kryptonite Tab

560 views 1 this week
no commentswrite comment
1 2 3 4 5
please rate
add to favorites
launch autoscroll
font size
0
reset
how to read this tab
guitar tuner
Tab Pro tools
  • play this tab
  • loop segment
  • change instrument
  • show fretboard
  • metronome
Autoscroll
slow
fast
+/-
esc
set tempo
stop
Contributor
Song: Blonde Kryptonite
Band: The Saint Alvia Cartel
Album: The Saint Alvia Cartel (2007)
Tabbed by: metabolic666 (alphabits_123@hotmail.com)

Tuning: Standard (EADGBe)

Intro/Chorus/Outro

e|5-5-5-5-5--7---|4-4-4-4-5--5--|
B|5-5-5-5-5--7---|5-5-5-5-5--5--|
G|6-6-6-6-6--7---|6-6-6-6-6--6--|
D|7-7-7-7-7--9---|6-6-6-6-7--7--|
A|7-7-7-7-7--9---|4-4-4-4-7--7--|
E|5-5-5-5-5--7---|--------5--5--| x6

e|5-5-5-5-5--7---|4~------4--3--|2~-------|
B|5-5-5-5-5--7---|5~------5--4--|3~-------|
G|6-6-6-6-6--7---|6~------6--5--|4~-------|
D|7-7-7-7-7--9---|6~------6--5--|4~-------|
A|7-7-7-7-7--9---|4~------4--3--|2~-------|
E|5-5-5-5-5--7---|--------------|---------|

Verse
"so pour me one last drink"
e|5--------5-5-8-|4-4-----------|5--------|
B|5--------5-5-8-|5-5-----------|5--------|
G|6--------6-6-8-|6-6-----------|6--------|
D|7--------7-7-9-|6-6-----------|7--------|
A|7--------7-7-9-|4-4-----------|7--------|
E|5--------5-5-7-|--------------|5--------| x3

e|5--------5-5-8-|4-4-----------|2--------|
B|5--------5-5-8-|5-5-----------|3--------|
G|6--------6-6-8-|6-6-----------|4--------|
D|7--------7-7-9-|6-6-----------|4--------|
A|7--------7-7-9-|4-4-----------|2--------|
E|5--------5-5-7-|--------------|---------|

Pre-Chorus
"tonight we'll take the city"

e|2-2-2-2-2-2-2-2-|2-2-2-2-2-2-2-2-|0-0-0-0-0--0~-|
B|3-3-3-3-3-3-3-3-|3-3-3-3-3-3-3-3-|2-2-2-2-2--2~-|
G|4-4-4-4-4-4-4-4-|4-4-4-4-4-4-4-4-|2-2-2-2-2--2~-|
D|4-4-4-4-4-4-4-4-|4-4-4-4-4-4-4-4-|2-2-2-2-2--2~-|
A|2-2-2-2-2-2-2-2-|2-2-2-2-2-2-2-2-|0-0-0-0-0--0~-|
E|----------------|----------------|--------------| x2
P.M................................|

Chorus 
Verse
Pre-Chorus
Chorus

Bridge

e|0-0-0-0-0-0-0-0-|2-2-2-2-2-2-2-2-|4-4-4-4-4-4-4-4-|5-5-5-5-5-5-5-5-|
B|2-2-2-2-2-2-2-2-|3-3-3-3-3-3-3-3-|5-5-5-5-5-5-5-5-|7-7-7-7-7-7-7-7-|
G|2-2-2-2-2-2-2-2-|4-4-4-4-4-4-4-4-|6-6-6-6-6-6-6-6-|7-7-7-7-7-7-7-7-|
D|2-2-2-2-2-2-2-2-|4-4-4-4-4-4-4-4-|6-6-6-6-6-6-6-6-|7-7-7-7-7-7-7-7-|
A|0-0-0-0-0-0-0-0-|2-2-2-2-2-2-2-2-|4-4-4-4-4-4-4-4-|5-5-5-5-5-5-5-5-| x4
E|----------------|----------------|----------------|----------------|
P.M..................................................................|

e|0-----0-----0---|2-----2-----2---|4-----4-----4---|5-----5-----5---|
B|2-----2-----2---|3-----3-----3---|5-----5-----5---|7-----7-----7---|
G|2-----2-----2---|4-----4-----4---|6-----6-----6---|7-----7-----7---|
D|2-----2-----2---|4-----4-----4---|6-----6-----6---|7-----7-----7---|
A|0-----0-----0---|2-----2-----2---|4-----4-----4---|5-----5-----5---|
E|----------------|----------------|----------------|----------------| x4

Chorus/Outro

Not 100% i know but it's pretty close.  Enjoy.
comments
We did not receive enough feedback on this tab! Please rate:
print report bad tab
1 2 3 4 5
I want to post or [tab]
guest
You may want to rate the tab now too:
select rating
Please do not post tabs as comments. Select "correction" instead!