Oops, an error
Loading. Please wait.

The Second Amendment - Naomi Bass Tab

121 views 1 this week
no commentswrite comment
1 2 3 4 5
please rate
add to favorites
launch autoscroll
font size
0
reset
guitar tuner
Autoscroll
slow
fast
+/-
esc
set tempo
stop
Help us to improve Ultimate-Guitar.com Take our survey!
×
Author
Difficulty
novice
Original song by Neutral Milk Hotel, this part is actually the melody played in the 
just on bass.

No bass during intro.

after drums come in, play this during the beginning of the verse:

G|-----------------------------------------------------------|
D|-----------------------------------------------------------|
A|-7--9-7-4-0----------------7--9-7-4-0----------------------|
E|--------------2-4--5-2--0---------------2-4--5-2--0--------|

towards the end of each verse, go right into:
G|--------------------------|
D|-----------2-----------2--|
A|-2--4h5-4----2--4h5-4-----|
E|--------------------------|

then right back into the first part.
Suggest correction
Give kudos to tab author, rate the tab!
1 2 3 4 5
comments
print report bad tab
guest
You may want to rate the tab now too:
select rating
Wanna post a correction for this tab? Suggest correction