Oops, an error
Loading. Please wait.

The Second Death - Awakening Tab

88 views 1 this week
no commentswrite comment
1 2 3 4 5
please rate
add to favorites
launch autoscroll
font size
0
reset
how to read this tab
guitar tuner
Tab Pro tools
  • play this tab
  • loop segment
  • change instrument
  • show fretboard
  • metronome
Autoscroll
slow
fast
+/-
esc
set tempo
stop
Contributor
Tabbed by: Cameron
Email: fretkiller1888@yahoo.com

Tuning: Standard

(This is all the verses, you just have to figure out how many times to play each verse. 
me, and I will tell you.)


e|--------------------------------------------------------------------------|
B|--------------------------------------------------------------------------|
G|--------------------------------------------------------------------------|
D|-------9--10--9-------9---10---9-------7---8---7-------7--8---7-----------|
A|-7-7-7--7---7---7-7-7---7----7---5-5-5---5---5---5-5-5---5--5-------------|
E|--------------------------------------------------------------------------|

e|--------------------------------------------------------------------------|
B|--------------------------------------------------------------------------|
G|--------------------------------------------------------------------------|
D|--------------------------------------------------------------------------|
A|-2-------------3---------5---------------2-3-2-2-4-2----------------------|
E|-0-0-0-0-0-0-0-1-0-0-0-0-3-0-0-0-0-0-0-0----------------------------------|

e|--------------------------------------------------------------------------|
B|--------------------------------------------------------------------------|
G|--------------------------------------------------------------------------|
D|--------------------------------------------------------------------------|
A|-2-------------5---------3---------------3-2-3----------------------------|
E|-0-0-0-0-0-0-0-3-0-0-0-0-1-0-0-0-0-0-0-0-------0-2------------------------|


e|--------------------------------------------------------------------------|
B|--------------------------------------------------------------------------|
G|--------------------------------------------------------------------------|
D|--------------------------------------------------------------------------|
A|-2-------------3-5-8-7--2-------------3-5-8-9*----------------------------|
E|-0-0-0-0-0-0-0-1-3-6-5--0-0-0-0-0-0-0-1-3-6-------------------------------|

e|--------------------------------------------------------------------------|
B|--------------------------------------------------------------------------|
G|--------------------------------------------------------------------------|
D|--------------------------------------------------------------------------|
A|-------------------------2-2-0-1-2-5-5-5-------2-2-0-1-2-4-4-4------------|
E|-2-2-0-1-2-----2-2-0-1-2-2-2-0-1-2-------4-4-4-2-2-0-1-2-------3-3-3------|

e|--------------------------------------------------------------------------|
B|--------------------------------------------------------------------------|
G|--------------------------------------------------------------------------|
D|--------------------------------------------------------------------------|
A|-2-2-0-1-2-3-3-3------2-2-0-1-2-2-2-2-------------------------------------|
E|-2-2-0-1-2------2-2-2-2-2-0-1-2------1------------------------------------|

e|--------------------------------------------------------------------------|
B|--------------------------------------------------------------------------|
G|--------------------------------------------------------------------------|
D|---------------------------8-7---6-5--4-3---------------------------------|
A|-------8-7-------6-5------------------------------------------------------|
E|-0-0-0-----0-0-0-----0-0-0-----0----0-------------------------------------|

e|--------------------------------------------------------------------------|
B|--------------------------------------------------------------------------|
G|--------------------------------------------------------------------------|
D|--------------------------------------------------------------------------|
A|-0-0-000000-0-0-000000-0-0-0-0-0-0-3-4*-----------------------------------|
E|-0-0-000000-0-0-000000-0-0-0-0-0-0-3--------------------------------------|

e|--------------------------------------------------------------------------|
B|--------------------------------------------------------------------------|
G|--------------------------------------------------------------------------|
D|--------------------------------------------------------------------------|
A|-0-0-000000-0-0-000000-0-0-0-0-0-4-3-2------------------------------------|
E|-0-0-000000-0-0-000000-0-0-0-0-0-4-3-0------------------------------------|

e|--------------------------------------------------------------------------|
B|--------------------------------------------------------------------------|
G|-------------------------------------------------------------5-7----------|
D|---------------------------------------------------------5-7--------------|
A|------7---5-----3---5---------------5-5---5-5--7-5-5-5-7------------------|
E|--5-5---5---5-5---5---5-5-5-5-5-5-5-5-5---5-5----5-5----------------------|


(Solo)

e|--------------------------------------------------------------------------|
B|-12b--10-10-10-10-10-10-10-10-9b-7-7-7-7-7-7-7-7-5b-5-5-5-5-5-5-----------|
G|--------------------------------------------------------------------------|
D|--------------------------------------------------------------------------|
A|--------------------------------------------------------------------------|
E|--------------------------------------------------------------------------|

e|--------------------------------------------------------------------------|
B|-4-5-4-4-7-4-5-4-4-7-2-3-2-2-5-2-3-2-2-5-10-12-10-10-15-------------------|
G|--------------------------------------------------------------------------|
D|--------------------------------------------------------------------------|
A|--------------------------------------------------------------------------|
E|--------------------------------------------------------------------------|

(Then I tap the rest of the solo.)

e|--------------------------------------------------------------------------|
B|--------------------------------------------------------------------------|
G|--------------------------------------------------------------------------|
D|-------------------------------------------9--10--------------------------|
A|-2-------------3---------5---------------7---7----------------------------|
E|-0-0-0-0-0-0-0-1-0-0-0-0-3-0-0-0-0-0-0-0----------------------------------|

e|--------------------------------------------------------------------------|
B|--------------------------------------------------------------------------|
G|--------------------------------------------------------------------------|
D|-------------------------------------------7---8--------------------------|
A|-2-------------5---------3---------------5---5----------------------------|
E|-0-0-0-0-0-0-0-3-0-0-0-0-1-0-0-0-0-0-0-0----------------------------------|


| /  slide up
| \  slide down
| h  hammer-on
| p  pull-off
| ~  vibrato
| +  harmonic
| x  Mute note
comments
We did not receive enough feedback on this tab! Please rate:
print report bad tab
1 2 3 4 5
I want to post or [tab]
guest
You may want to rate the tab now too:
select rating
Please do not post tabs as comments. Select "correction" instead!