Oops, an error
Loading. Please wait.

The Sellouts - Drain Fluid Tab

44 views 1 this week
no commentswrite comment
1 2 3 4 5
please rate
add to favorites
launch autoscroll
font size
0
reset
how to read this tab
guitar tuner
Tab Pro tools
  • play this tab
  • loop segment
  • change instrument
  • show fretboard
  • metronome
Autoscroll
slow
fast
+/-
esc
set tempo
stop
Contributor
song- unknown
Tuning-Flat(Eb Ab Db Gb Bb eb)
Intro
  
 1 + 2 + 3 + 4 + 1 + 2 + 3 + 4 +   1 + 2 + 3 + 4 + 1 + 2 + 3 + 4 +  
 Clean
e|----------------|----------------|----------------|----------------
B|----------------|----------------|----------------|----------------
G|3---3-3/7-7-7-7-|--------6-6-6-6-|3---3-3/7-7-7-7-|--------6-6-6-6-
D|3---3-3/7-7-7-7-|7---7-7-6-6-6-6-|3---3-3/7-7-7-7-|7---7-7-6-6-6-6-
A|1---1-1/5-5-5-5-|7---7-7-4-4-4-4-|1---1-1/5-5-5-5-|7---7-7-4-4-4-4-
E|----------------|5---5-5---------|----------------|5---5-5---------
Distortion 
e|----------------|----------------|----------------|----------------
B|----------------|----------------|----------------|----------------
G|3---3-3/7-7-7-7-|--------6-6-6-6-|3---3-3/7-7-7-7-|--------6-6-6-6-
D|3---3-3/7-7-7-7-|7---7-7-6-6-6-6-|3---3-3/7-7-7-7-|7---7-7-6-6-6-6-
A|1---1-1/5-5-5-5-|7---7-7-4-4-4-4-|1---1-1/5-5-5-5-|7---7-7-4-4-4-4-
E|----------------|5---5-5---------|----------------|5---5-5---------

e|----------------|----------------|----------------|----------------|
b|----------------|----------------|----------------|----------------|
G|3---3-3/7-7-7-7-|--------6-6-6-6-|3---3-3/7-7-7-7-|--------6-6-6-6-|
D|3---3-3/7-7-7-7-|7---7-7-6-6-6-6-|3---3-3/7-7-7-7-|7---7-7-6-6-6-6-|
A|1---1-1/5-5-5-5-|7---7-7-4-4-4-4-|1---1-1/5-5-5-5-|7---7-7-4-4-4-4-|
E|----------------|5---5-5---------|----------------|5---5-5---------|

e|----------------|----------------|----------------|----------------|
B|----------------|----------------|----------------|----------------|
G|3---3-3/7-7-7-7-|--------6-6-6-6-|3---3-3/7-7-7-7-|--------6-6-6-6-|
D|3---3-3/7-7-7-7-|7---7-7-6-6-6-6-|3---3-3/7-7-7-7-|7---7-7-6-6-6-6-|
A|1---1-1/5-5-5-5-|7---7-7-4-4-4-4-|1---1-1/5-5-5-5-|7---7-7-4-4-4-4-|
E|----------------|5---5-5---------|----------------|5---5-5---------|


The Verse has no guitar for 8 measures, then

Pre-Chorus(Chorus and Distortion)
 1 + 2 + 3 + 4 + 
Chorus and Distortion
e|--------3-2-3---|
B|2---2-----------|
G|----------------|   Eight Times, then
D|----------------|
A|----------------|
E|----------------|

Chorus(distortion)
 1 + 2 + 3 + 4 +  1 + 2 + 3 + 4 +  1 + 2 + 3 + 4 +  1 + 2 + 3 + 4 + 
e|----------------|----------------|----------------|----------------
B|----------------|----------------|----------------|----------------
G|3---3-3/7-7-7-7-|--------6-6-6-6-|3---3-3/7-7-7-7-|--------6-6-6-6-  
D|3---3-3/7-7-7-7-|7---7-7-6-6-6-6-|3---3-3/7-7-7-7-|7---7-7-6-6-6-6-  
A|1---1-1/5-5-5-5-|7---7-7-4-4-4-4-|1---1-1/5-5-5-5-|7---7-7-4-4-4-4-
E|----------------|5---5-5---------|----------------|5---5-5---------
Eight times then

Bridge(distortion)

  1 + 2 + 3 + 4 +  1 + 2 + 3 + 4 +
e|----------------|----------------|
B|----------------|----------------|
G|----------------|----------------|
D|7-776-663-33----|7-776-663-334444|  Two Times
A|7-776-663-334/14|7-776-663-334444|
E|5-554-441-11----|5-554-441-112222|

Outro(distortion)
  1 + 2 + 3 + 4 +  1 + 2 + 3 + 4 +  1 + 2 + 3 + 4 +  1 + 2 + 3 + 4 +
e|----------------|----------------|----------------|----------------
B|----------------|----------------|----------------|----------------
G|3---3-3/7-7-7-7-|----------------|3---3-3/7-7-7-7-|----------------  
D|3---3-3/7-7-7-7-|7---7-7-6-6-6-6-|3---3-3/7-7-7-7-|7---7-7-6-6-6-6-  
A|1---1-1/5-5-5-5-|7---7-7-6-6-6-6-|1---1-1/5-5-5-5-|7---7-7-6-6-6-6-
E|----------------|5---5-5-4-4-4-4-|----------------|5---5-5-4-4-4-4-
Eight Times
and End with
  1 + 2 + 3 + 4 +
e|----------------|
B|----------------|
G|3---------------|
D|3---------------|
A|1---------------|
E|----------------|



Intro
Verse
Pre-Chorus
Chorus
Bridge
verse
Pre-Chorus
Chorus
Bridge
Solo(haven't made yet)
Verse
Pre-Chorus
Chorus
Outro

comments
We did not receive enough feedback on this tab! Please rate:
print report bad tab
1 2 3 4 5
I want to post or [tab]
guest
You may want to rate the tab now too:
select rating
Please do not post tabs as comments. Select "correction" instead!