Oops, an error
Loading. Please wait.

The Sellouts - Not What You Wanted To See Tab

72 views 1 this week
no commentswrite comment
1 2 3 4 5
3 more votes to show rating
add to favorites
launch autoscroll
font size
0
reset
how to read this tab
guitar tuner
Autoscroll
slow
fast
+/-
esc
set tempo
stop
Help us to improve Ultimate-Guitar.com Take our survey!
×
Not What You wanted to See- The Sellouts

Tuning- half step down
 full
^    - full bend
 half
^    - Half bend
> - slide up to
< - slide down to

Intro part one(X4)(distortion)
e|----------------9-9-9-9-9-9-9-9|
B|----------------9-9-9-9-9-9-9-9|
G|-------------------------------|
D|-------------------------------|
A|1010101010101010---------------|
E|0-0-0-0-0-0-0-0----------------|
  1 + 2 + 3 + 4 + 1 + 2 + 3 + 4 +
Intro Part 2(X4)(distortion)
e|------------------------9-9-9-9|
B|------------------------9-9-9-9|
G|8---8---6-665--55-5-5----------|
D|8---8---6-665--55-5-5----------|
A|6---6---4-443--33-3-3----------|
E|-------------------------------|
  1 + 2 + 3 + 4 + 1 + 2 + 3 + 4 +

Verse(X4)(distortion)
e|----------------9-9-9-9-9-9-9-9|
B|----------------9-9-9-9-9-9-9-9|
G|-------------------------------|
D|-------------------------------|
A|1010101010101010---------------|
E|0-0-0-0-0-0-0-0----------------|
  1 + 2 + 3 + 4 + 1 + 2 + 3 + 4 +

Chorus part one(X5)(distortion)
e|------------------------9-9-9-9|
B|------------------------9-9-9-9|
G|8---8---6-665--55-5-5----------|
D|8---8---6-665--55-5-5----------|
A|6---6---4-443--33-3-3----------|
E|-------------------------------|
  1 + 2 + 3 + 4 + 1 + 2 + 3 + 4 +

Chorus part two(X4)(distortion)
e|-------------------------------|
B|-------------------------------|
G|8---8---6-665--55-5-5-5-5-5-5--|
D|8---8---6-665--55-5-5-5-5-5-5--|
A|6---6---4-443--33-3-3-3-3-3-3--|
E|-------------------------------|
  1 + 2 + 3 + 4 + 1 + 2 + 3 + 4 +

Solo one(Distortion)(chorus)
e|--9---10------9--------------------------9------------------9-8|
B|9---9-------9---9-10----109---------------10-----9-10------10--|
G|----------------------------109-----9-10------------11109------|
D|---------------------------------------------------------------|
A|---------------------------------------------------------------|
E|---------------------------------------------------------------|
  1 + 2 + 3 + 4 + 1 + 2 + 3 + 4 + 1 + 2 + 3 + 4 + 1 + 2 + 3 + 4 +
Solo two(distortion)
e|----------------9-9-9-9-9-9-9-9-------------------9-9-9-9-9-9-9-9|
B|----------------9-9-9-9-9-9-9-9-------------------9-9-9-9-9-9-9-9|
G|-----------------------------------------------------------------|
D|------------------------------------------------full-------------|
A|1010101010101010--------------->15--15--14151516^----------------|
E|0-0-0-0-0-0-0-0-----------------0---0---0-0-0-0------------------|
  1 + 2 + 3 + 4 + 1 + 2 + 3 + 4 + 1 + 2 + 3 + a 4 + 1 + 2 + 3 + 4 +
e|--------------------------9-9-9-9-----------9-9-9-9-----------------|
B|--------------------------9-9-9-9-----------9-9-9-9-----------------|
G|--------------------------------------------------------------------|
D|------------------------------------------------------------half----|
A|>15151615>18181514--151615------->14--141816------->14141517^-151413|
E|-0-0-0-0--0-0-0-0---0-0-0---------0---0-0-0---------0-0-0-0---0-0-0-|
   1 + 2 +  3 + 4 + 1 + 2 + 3 + 4 + 1 + a 2 + 3 + 4 + 1 + 2 + 3 + 4 +
e|9-9-9-9-9-9-9-9-9-9-9-9-9-9-9-9-9-9-9-9-9-9-9-9-8-8-8-8-8-8-8-8|
B|9-9-9-9-9-9-9-9-9-0-9-0-9-0-9-0-9-0-9-0-9-0-9-0-8-0-8-0-8-0-8-0|
G|---------------------------------------------------------------|
D|---------------------------------------------------------------|
A|---------------------------------------------------------------|
E|---------------------------------------------------------------|
  1 + 2 + 3 + 4 + 1 + 2 + 3 + 4 + 1 + 2 + 3 + 4 + 1 + 2 + 3 + 4 +
e|8-8-8-8-8-8-8-8-7-7-7-7-7-7-7-7-7-7-7-7-7-7-7-7-6-6-6-6-6-6-6-6|
B|8-0-8-0-8-0-8-0-7-0-7-0-7-0-7-0-7-0-7-0-7-0-7-0-6-0-6-0-6-0-6-0|
G|---------------------------------------------------------------|
D|---------------------------------------------------------------|
A|---------------------------------------------------------------|
E|---------------------------------------------------------------|
  1 + 2 + 3 + 4 + 1 + 2 + 3 + 4 + 1 + 2 + 3 + 4 + 1 + 2 + 3 + 4 +
e|5-5-5-5-5-5-5-5-4-4-4-4-3-3-3-3-2-2-2-2-1-1-1-1-0--------------|
B|5-0-5-0-5-0-5-0-4-0-4-0-3-0-3-0-2-0-2-0-1-0-1-0-0--------------|
G|---------------------------------------------------------------|
D|---------------------------------------------------------------|
A|---------------------------------------------------------------|
E|---------------------------------------------------------------|
  1 + 2 + 3 + 4 + 1 + 2 + 3 + 4 + 1 + 2 + 3 + 4 + 1 + 2 + 3 + 4 +

Intro part one
Intro part two
Verse
Chorus
Verse
Solo one
Chorus
Solo Two
Suggest correction
Give kudos to tab author, rate the tab!
1 2 3 4 5
comments
print report bad tab
guest
You may want to rate the tab now too:
select rating
Wanna post a correction for this tab? Suggest correction