Oops, an error
Loading. Please wait.

The Seven Deadly Sins - Angels With Filthy Souls Tab

131 views 3 this week
no commentswrite comment
1 2 3 4 5
please rate
add to favorites
launch autoscroll
font size
0
reset
how to read this tab
guitar tuner
Autoscroll
slow
fast
+/-
esc
set tempo
stop
Help us to improve Ultimate-Guitar.com Take our survey!
×
Author
Difficulty
Tuning
novice
C G C F A D
The seven deadly sins

“angels with filthy souls”

drop c

Guitar 1 Intro
|-------------------------------------------------------------------------|
|-------------------------------------------------------------------------|
|-------------------------------------------------------------------------|
|--11-12-11---11-12-11---5-7-5---7-9-7---11-12-11---11-12-11---5-7-5—-7---| 
|-9--------9-9--------9-5-----5-7-----7-9--------9-9--------9-5-----5-7-//|
|9----------9----------5-------7-------9----------9----------5--------7-//|
Guitar 2 intro
|------------------------------------------------------------|
|------------------------------------------------------------|
|------------------------------------------------------------|
|-999999999999999955555555777777779999999999999999555555557~-| 
|-999999999999999955555555777777779999999999999999555555557~-|
|-999999999999999955555555777777779999999999999999555555557~-|
Pm--------------------------------------------------------

guitar 1 verse
|------------------------------------------------------------------|
|------------------------------------------------------------------|
|----------------------------------------------7-------------------|
|--------------9---------------5----7--7—-7--7--7---------7--7--7--| 
|---9--9--9--9--9---5--5--5--5--5-55-55-55-55-5--5--7--7---7--7--7-|
|-99-99-99-99-9--955-55-55-55-5--5----------------77-77-77--7-—7---|
  xx xx xx xx x   xx xx xx xx x   xx xx xx xx x   xx xx xx  
guitar 2 verse
|--------------------------------------------------------------|
|--------------------------------------------------------------|
|-------------------------------777777777777777----------------|
|-999999999999999555555555555555777777777777777777777777777777-| 
|-999999999999999555555555555555555555555555555777777777777777-|
|-999999999999999555555555555555---------------777777777777777-|
  xx xx xx xx xx xx xx xx xx xx xx xx xx xx xx xx xx xx xx xx
 
guitar 1 chorus
|----------------------------------|
|----------------------------------|
|-------------------7---7----------|
|---9---9---5---5--7-7-7-7--7---7--| 
|--9-9-9-9-5-5-5-55---5----7-7-7-7-|
|-9---9---5---5-----------7---7----|

guitar 2 chorus
|----------------------------------|
|----------------------------------|
|-----------------77777777---------|
|-99999999555555557777777777777777-| 
|-99999999555555555555555577777777-|
|-9999999955555555--------77777777-|

verse 2 guitar 1
|-------------------------------------------------|
|-------------------------------------------------|
|-------------------------777-7-777-7-------------|
|-999-9-999-9-555-5-555-5-777-7-777-7-777-7-777-7-| 
|-999-9-999-9-555-5-555-5-555-5-555-5-777-7-777-7-|
|-999-9-999-9-555-5-555-5-------------777-7-777-7-|

intro
verse
chorus
intro 
verse
chorus
verse 2
chorus
intro

Visit our myspace!
Suggest correction
What's this?
You can suggest a correction to this tab. Community and Mods will review your correction and vote to approve or reject it.
comments
We did not receive enough feedback on this tab! Please rate:
print report bad tab
1 2 3 4 5
guest
You may want to rate the tab now too:
select rating
Please do not post tabs as comments. Select "correction" instead!