Oops, an error
Loading. Please wait.

The Seven Deadly Sins - I Can Still Taste The Last Guy In Your Mouth Tab

68 views 1 this week
no commentswrite comment
1 2 3 4 5
please rate
add to favorites
launch autoscroll
font size
0
reset
how to read this tab
guitar tuner
Autoscroll
slow
fast
+/-
esc
set tempo
stop
Help us to improve Ultimate-Guitar.com Take our survey!
×
Author
Difficulty
Tuning
intermediate
C G C F A D
The seven deadly sins

“I can still taste the last guy in your mouth”

drop c

Guitar 1 Intro/ verse
|--------------------------------------------|
|--------------------------------------------|
|--------------------------------------------|
|---------(8)—-(7)-------------(8)—-(7)------|
|---5--6------------8p6--5--6------------6h8-|
|-55-55-55---55---55---55-55-55---55---55----|
  xx xx xx   xx   xx   xx xx xx   xx   xx
guitar 2
|--------------------------------------------|
|--------------------------------------------|
|--------------------------------------------|
|-5~------------------8~---------------------|
|-5~------------------8~---------------------|
|-5~------------------8~---------------------|

Guitar 1 Intro/ verse continued
|---------------------------------------------|
|---------------------------------------------|
|---------------------------------------------|
|--------(8)—-(7)-------------8p5-7p5---------|
|---5--6-----------8p6--5--6----------8p5-6p5-|
|-55-55-55--55---55---55-55-555---------------|
  xx xx xx  xx   xx   xx xx xxx
guitar 2
|---------------------------------------------|
|---------------------------------------------|
|---------------------------------------------|
|-10~----------------//-----------------------|
|-10~----------------//-----------------------|
|-10~----------------//-pickslide-------------|

Guitar 2 harmony jumps in with guitar one intro verse
|--------------------------------------------|
|--------------------------------------------|
|--------------------------------------------|
|---------11---10--------------11---10-------|
|---8--9-----------11p9--8--9-----------9h11-|
|-88-88-88---88--88----88-88-88---88--88-----|
  xx xx xx   xx  xx    xx xx xx   xx  xx
Guitar 2 harmony continued
|----------------------------------------------|
|----------------------------------------------|
|----------------------------------------------|
|---------11---10-----------~------------------|
|---8--9-----------11p9---//-------------------|
|-88-88-88---88--88------//-pickslide----------|
  xx xx xx   xx  xx    
guitar 1 intro pt 2
|----------------------------------------|
|----------------------------------------|
|----------------------------------------|
|-0-8p5-7p5--------10p7-9p7--------------|
|-0--------8p5-6p5---------10p7-8p7------|
|-0--------------------------------------|
guitar 2 intro part 2
|----------------------------------------|
|----------------------------------------|
|----------------------------------------|
|-0--------------------------------------|
|-0--------------------------------------|
|-0--------------------------------------|
guitar  1 chorus 
|----------------------------------------------|
|----------------------------------------------|
|----------------------------------------------|
|-0----------85-0---------56-0---------8555666-|
|-0-----6-5--85-0-----6-5-56-0-----6-5-8555666-|
|-0-000------85-0-000-----56-0-000-----8555666-|
    xxx           xxx          xxx
Guitar 2 chorus harmony
|----------------------------------------------|
|----------------------------------------------|
|----------------------------------------------|
|-0-------------0------------0---------8555666-|
|-0-----9-8-----0-----9-8----0-----9-8-8555666-|
|-0-000---------0-000--------0-000-----8555666-|
    xxx           xxx          xxx
guitar 1 pre verse
|------------------------------------------------------------------|
|------------------------------------------------------------------|
|------------------------------------------------------------------|
|----------8656----------6865----------8656---------8p5-7p5--------|
|---5--6---8656---5--6---6865---5--6---8656---5—-6---------8p5-6p5-|
|-55-55-55-8656-55-55-55-6865-55-55-55-8656-55-55-55---------------|
  xx xx xx      xx xx xx      xx xx xx      xx xx xx
guitar 2 pre verse
|------------------------------------------------------------------|
|------------------------------------------------------------------|
|------------------------------------------------------------------|
|-5~---------------------------------------------------------------|
|-5~----------------------------------------//---------------------|
|-5~---------------------------------------//-pickslide------------|
 
guitar 1 interlude
|----------------------------------|
|----------------------------------|
|----------------------------------|
|-33333333555555551111111188888888-|
|-33333333555555551111111188888888-|
|-33333333555555551111111188888888-|

guitar 2 interlude
|-13----13----13--15----15----15--11----11----11--11----11----11---|
|---13----13----13--13----13----13--11----11----11--11----11----11-|
|-----14----14--------14----14--------12----12--------12----12-----|
|------------------------------------------------------------------|
|------------------------------------------------------------------|
|------------------------------------------------------------------|

Guitar 1 outro
|--------------------------------------------|
|--------------------------------------------|
|--------------------------------------------|
|---------(8)—-(7)-------------(8)—-(7)------|
|---5--6------------8p6--5--6------------6h8-|
|-55-55-55---55---55---55-55-55---55---55----|
  xx xx xx   xx   xx   xx xx xx   xx   xx  
Guitar 2 outro harmony
|--------------------------------------------|
|--------------------------------------------|
|--------------------------------------------|
|---------11---10--------------11---10-------|
|---8--9-----------11p9--8--9-----------9h11-|
|-88-88-88---88--88----88-88-88---88--88-----|
  xx xx xx   xx  xx    xx xx xx   xx  xx
Guitar 1 outro continued
|--------------------------------------------------------------------|
|--------------------------------------------------------------------|
|--------------------------------------------------------------------|
|--------(8)—-(7)-------------8p5-7p5--------10p7-9p7---------5555-5-|
|---5--6-----------8p6--5--6----------8p5-6p5--------10p7-8p7-5555-5-|
|-55-55-55--55---55---55-55-555-------------------------------5555-5-|
  xx xx xx  xx   xx   xx xx xxx                               xxxx
Guitar 2 outro harmony continued
|--------------------------------------------------------------------|
|--------------------------------------------------------------------|
|--------------------------------------------------------------------|
|---------11---10----------------8~---------------------------8888-5-|
|---8--9-----------11p9--8--9----8~-//------------------------8888-5-|
|-88-88-88---88--88----88-88-888-8~-//pickslide---------------8888-5-|
  xx xx xx   xx  xx    xx xx xxx                              xxxx

intro
intro pt 2
verse
chorus
pre verse
verse
chorus
interlude
outro

visit our myspace!
Suggest correction
Give kudos to tab author, rate the tab!
1 2 3 4 5
comments
print report bad tab
guest
You may want to rate the tab now too:
select rating
Please do not post tabs as comments. Select "correction" instead!