Oops, an error
Loading. Please wait.

The Seven Deadly Sins - I Hate Fucken Feedback Tab

62 views 3 this week
no commentswrite comment
1 2 3 4 5
please rate
add to favorites
launch autoscroll
font size
0
reset
how to read this tab
guitar tuner
Tab Pro tools
  • play this tab
  • loop segment
  • change instrument
  • show fretboard
  • metronome
Autoscroll
slow
fast
+/-
esc
set tempo
stop
Contributor
Difficulty
Tuning
intermediate
C G C F A D
The seven deadly sins

“I hate f***en feedback”

drop c

Guitar 1 intro
|------------------------------------------------------------------|
|------------------------------------------------------------------|
|------------------------------------------------------------------|
|-0-------8888-5~--0--------8888-10101010-0-------8888-5-7777-8888-|
|-0-------8888-5~--0--------8888-10101010-0-------8888-5-7777-8888-|
|-0-------8888-5~--0--------8888-10101010-0-------8888-5-7777-8888-|

guitar 1 verse/outro
|----------------------------------------------------------------|
|----------------------------------------------------------------|
|----------------------------------------------------------------|
|----------------------------------------------------------------|
|----------------------------------------------------------------|
|-00-8p7-0-8p7-0-8p7-0-8p7-0-5h7-00-8p7-0-8p7-0-8p7-0-8p7-0-8h10-|
  xx     x     x     x     x     xx     x     x     x     x
verse continued
|-----------------------------------------------------------|
|-----------------------------------------------------------|
|-----------------------------------------------------------|
|-----------------------------------------------------------|
|-----------------------------------------------------------|
|-00-8p7-0-8p7-0-8p7-0-8p7-0-5h7-00-8p7-0-8p7-0-8p7-0000-3*-|
  xx     x     x     x     x     xx     x     x     xxxx
guitar 1 chorus
|------------------------------------------------------------------|
|------------------------------------------------------------------|
|-1515151515151515121212121212121214141414141414141010101012121212-|
|-x-x-x-x-x-x-x-x-x-x-x-x-x-x-x-x-x-x-x-x-x-x-x-x-x-x-x-x-x-x-x-x--|
|-1313131313131313101010101010101012121212121212128-8-8-8-10101010-|
|------------------------------------------------------------------|
guitar 2 chorus
|----------------------------------|
|----------------------------------|
|----------------------------------|
|-88888888555555557777777733335555-|
|-88888888555555557777777733335555-|
|-88888888555555557777777733335555-|

guitar 1 verse 2
|--------------x4---------|--------------------------|
|-------------------------|--------------------------|
|------1514--101010121212-|-121212121414141415151515-|
|------x-x---x-x-x-x-x-x--|-x-x-x-x-x-x-x-x-x-x-x-x—-|
|------1312—-8-8-8-101010-|-101010101414141415151515-|
|-0-000----00-------------|--------------------------|
  x xxx    xx
guitar 2 verse 2
|-----x4--------|--------------|
|---------------|--------------|
|---------------|--------------|
|------87--3355-|-555577778888-|
|------87--3355-|-555577778888-|
|-0-00087003355-|-555577778888-|
  x xxx  xx
solo
|------------------------------------------------------------------|
|---18171820181718--18171820181718--18171820181718--18171820222018-|
|-15--------------14--------------15--------------14---------------|
|------------------------------------------------------------------|
|------------------------------------------------------------------|
|--------------------------------------x2--------------------------|
continued
|-----------------------------------------------------------------|
|---18-17-18b~-----18-17-18b~-----18-17-18b~------18-17-18b~-20b~-|
|-15----------15-14----------14-15----------145-14----------------|
|-----------------------------------------------------------------|
|-----------------------------------------------------------------|
|----------------------x2-----------------------------------------|
continued
|----------------------------------------------------------|
|---18p15—-18p15—-18p15--18p15—-17p14--17p14--17p14--17p14-|
|-15-----15-----15-----15-----14-----14-----14-----14------|
|----------------------------------------------------------|
|----------------------------------------------------------|
|------------------x2--------------------------------------|
continued
|-------------------x2------------------|
|----L18-t22-h18p15-|----L17-t22-h17p14-|
|-t22---------------|-t22---------------|
|-------------------|-------------------|
|-------------------|-------------------|
|-------x4----------|-------------------|

guitar 2 solo
|------------------|
|------------------|
|------------------|
|-8888888877777777-|
|-8888888877777777-|
|-8888888877777777-|

intro
verse
chorus
verse 2
pre solo
solo
chorus
verse

visit our myspace!
comments
We did not receive enough feedback on this tab! Please rate:
print report bad tab
1 2 3 4 5
I want to post or [tab]
guest
You may want to rate the tab now too:
select rating
Please do not post tabs as comments. Select "correction" instead!