Oops, an error
Loading. Please wait.

The Seven Deadly Sins - I Like You Better With Your Cloths Off Tab

71 views 1 this week
no commentswrite comment
1 2 3 4 5
please rate
add to favorites
launch autoscroll
font size
0
reset
how to read this tab
guitar tuner
Autoscroll
slow
fast
+/-
esc
set tempo
stop
Help us to improve Ultimate-Guitar.com Take our survey!
×
Contributor
Difficulty
Tuning
intermediate
D G C F A D
The seven deadly sins

“I like you better with your cloths off”

d standard

guitar 1 intro/pre verse
|----------------------|--------------------|
|----------------------|---------------3----|
|----------------------|-----------2-x-2-5~-|
|-2-22-2-22-2-22-------|-2-22-2-22-2-x-0-5~-|
|-2-22-2-22-2-22-------|-2-22-2-22-0-x---3~-|
|-0-00-0-00-0-00-3b-3b-|-0-00-0-00----------|
    xx   xx   xx           xx   xx                               
guitar 1 and 2 verse
|-----------------------------------------|
|-----------------------------------------|
|---------------------2-22-2-22-2-22-2-22-|
|-2-22-2-22-2-22-2-22-2-22-2-22-2-22-2-22-|
|-2-22-2-22-2-22-2-22-0-00-0-00-0-00-0-00-|
|-0-00-0-00-0-00-0-00---------------------|
    xx   xx   xx   xx   xx   xx   xx   xx      

guitar 1 and 2 verse continued
|--------------------------------------------|
|--------------------------------------------|
|-5-55-5-55-5-55-5-55-7-77-7-77-7-77-7/6/5/4-|
|-5-55-5-55-5-55-5-55-7-77-7-77-7-77-7/6/5/4-|
|-3-33-3-33-3-33-3-33-5-55-5-55-5-55-5/4/3/2-|
|--------------------------------------------|
    xx   xx   xx   xx   xx   xx   xx    

guitar 2 pre chorus
|----------|
|----------|
|-55556666-|
|-55556666-|
|-33334444-|
|----------|
Guitar 1 pre chorus
|------------------|
|-13131313----14---|
|-12121212--13--13-|
|-1010101011-------|
|------------------|
|------------------|

guitar 1 chorus
|------------------------x3----------------------------|
|-----15------15----10---10-----13------13----10---10--|
|---14--14--14--14-9--9-9--9--12--12--12--12-9--9-9--9-|
|-12------12------7----7----10------10------7----7-----|
|------------------------------------------------------|
|------------------------------------------------------|
guitar 1 chorus continued
|------------------------------------------------------------|
|-----15------15----10---10-----13------13------15------15---|
|---14--14--14--14-9--9-9--9--12--12--12--12--14--14--14--14-|
|-12------12------7----7----10------10------12------12-------|
|------------------------------------------------------------|
|------------------------------------------------------------|

guitar 2 chorus
|---------x3----------------------|--------------------------------|
|---------------------------------|--------------------------------|
|-77777777222222225555555522222222|7777777722222222555555557777777-|
|-77777777222222225555555522222222|7777777722222222555555557777777-|
|-55555555000000003333333300000000|5555555500000000333333355555555-|
|---------------------------------|--------------------------------|
 guitar 1 solo
|-------------------------------------------------=-|
|--10p7-8p7-10p7-8p7-8h10-10p7-8p7-10p7-8p7-10p8p7/-|
|-7----7---7----7---7----7----7---7----7---7--------|
|---------------------------------------------------|
|---------------------------------------------------|
|---------------------------------------------------|
Guitar 1 solo continued
|---------------------------------------------------------------------|
|----(5)---(5)p4---(7)p4---(5)p4---(7)p4--(4)h7-----------------------|
|-(4)---(4)-----(4)-----(4)-----(4)-------------t11h7p5-(x4)-7fb-////-|
|---------------------------------------------------------------/////-|
|---------------------------------------------------------pickscrape--|
|---------------------------------------------------------------------|

guitar 2 solo
|------------------------------------------|
|------------------------------------------|
|-7777777777777777222222225555555566666666-|
|-7777777777777777222222225555555566666666-|
|-5555555555555555000000003333333344444444-|
|------------------------------------------|

guitar 1 outro chorus
|------------------------x3----------------------------|
|-----15------15----10---10-----13------13----10---10--|
|---14--14--14--14-9--9-9--9--12--12--12--12-9--9-9--9-|
|-12------12------7----7----10------10------7----7-----|
|------------------------------------------------------|
|------------------------------------------------------|
guitar 1 outro chorus continued
|------------------------------------------------------------|
|-----15------15----10---10-----13------13------15------15---|
|---14--14--14--14-9--9-9--9--12--12--12--12--14--14--14--14-|
|-12------12------7----7----10------10------12------12-------|
|------------------------------------------------------------|
|----------------------------------------------------|
guitar 1 outro chorus continued
|----------------------|
|-----13------15---10~-|
|---12--12--14--14-9-~-|
|-10------12-------7-~-|
|----------------------|
|----------------------|

guitar 2 outro chorus
|---------x3----------------------|----------------------------------------|
|---------------------------------|----------------------------------------|
|-77777777222222225555555522222222|7777777722222222555555557777777555577772|
|-77777777222222225555555522222222|7777777722222222555555557777777555577772|
|-55555555000000003333333300000000|5555555500000000333333355555555333355550|
|---------------------------------|----------------------------------------|

intro
verse
pre chorus
chorus
intro
verse
pre chorus
chorus
solo
outro chorus


 visit our myspace!
      
comments
We did not receive enough feedback on this tab! Please rate:
print report bad tab
1 2 3 4 5
I want to post or [tab]
guest
You may want to rate the tab now too:
select rating
Please do not post tabs as comments. Select "correction" instead!