Oops, an error
Loading. Please wait.

The Seven Deadly Sins - Theirs No Cleavage In Cleveland Tab

41 views 1 this week
no commentswrite comment
1 2 3 4 5
please rate
add to favorites
launch autoscroll
font size
0
reset
how to read this tab
guitar tuner
Tab Pro tools
  • play this tab
  • loop segment
  • change instrument
  • show fretboard
  • metronome
×
Best way to learn
"The Seven Deadly Sins - Theirs No Cleavage In Cleveland"
Autoscroll
slow
fast
+/-
esc
set tempo
stop
Contributor
Difficulty
Tuning
intermediate
C G C F A D
The seven deadly sins

“theirs no cleavage in Cleveland” 

drop c

Guitar 2 intro/ pre verse/ chorus
|----17-15-14h15p14-----------17-15-14h15p14---------|
|-15---------------15-14-12-15--------------15-14-17-|
|----------------------------------------------------|
|----------------------------------------------------|
|----------------------------------------------------|
|----------------------------------------------------|
guitar 2
|-------------------------------------------------------------------|
|-------------------------------------------------------------------|
|-77--------------99--------------1212-------------1111----99-------|
|-77--------------99--------------1212-------------1111----99-------|
|-55--------------77--------------10---------------9-9-----77---//--|
|---------------------------------------------------------------//--|
Guitar 1 pre verse/ verse 
|--------------------------------------|
|--------------------------------------|
|---7--7--7--7--7—--12--12--12--12--12-|
|---7--7--5--5--7---12--12--10--10--12-|
|---5--5--5--5--5---10--10--10--10--10-|
|-00-00-00-00-00--00--00--00--00--00---|
  xx xx xx xx xx  xx  xx  xx  xx  xx
guitar 2 verse
|-----------------------------------------------|
|-----------------------------------------------|
|-----------------------------------------------|
|-555555555555555101010101010101010101010101010-|
|-555555555555555101010101010101010101010101010-|
|-555555555555555101010101010101010101010101010-|
  xxxxxxxxxxxxxxxx x x x x x x x x x x x x x x 

Guitar 1 chorus
|----------------------------------------------|
|----------------------------------------------|
|-77777777999999991212121212121212111111119999-|
|-77777777999999991212121212121212111111119999-|
|-555555557777777710101010101010109-9-9-9-7777-|
|----------------------------------------------|

interlude guitar 1 clean
|------------------------------------|
|-----7--7--7--7------8--8--8--8-----|
|---7--7--7--7--7---7--7--7--7--7----|
|--5-5--5--5--5--5-5-5--5--5--5--5---|
|-5---------------5------------------|
|------------------------------------|

interlude guitar 1 clean continued
|------------------------------------------------------------------|
|---------12----12----12----12------------13----13----13----13-----|
|-----12----12----12----12----12------12----12----12----12----12---|
|---10--10----10----10----10----10--10--10----10----10----10----10-|
|-10------------------------------10-------------------------------|
|------------------------------------------------------------------|

guitar 2 light distorcian harmonics weird timing
|--------------------------------------------------------------------------|
|---------------------------------------------(12)----------------(12)-----|
|---------(5)-(7)---------(5)-(7)------------------(12)---------------(12)-|
|-----(7)-------------(7)---------------(12)-----------------(12)----------|
|-(5)-------------(5)-------------(12)------------------(12)---------------|
|--------------------------------------------------------------------------|

guitar 1 solo
|----17-15-14h15p14-------------17-15-14h15p14----------|
|-15----------------15-14-12-15----------------15-14-17-|
|-------------------------------------------------------|
|-------------------------------------------------------|
|-----pinch picking-------------------------------------|
|-------------------------------------------------------|

|-----17p15----17p15----17p15----17p15----15p14----15p14----15p14----15p14-|
|-1515-----1515-----1515-----1515-----1414-----1414-----1414-----1414------|
|--------------------------------------------------------------------------|
|--------------------------------------------------------------------------|
|--------------------------------------------------------------------------|
|--------------------------------------------------------------------------|

|----14p12—---14p12—---14p12—---14p12----14p13----14p13----15p14----15b-|
|1212-----1212-----1212-----1212-----1313-----1313-----1414-----1414----|
|-----------------------------------------------------------------------|
|-----------------------------------------------------------------------|
|-----------------------------------------------------------------------|
|-----------------------------------------------------------------------|

Guitar 2 outro harmony
|----17-15-14h15p14-----------17-15-14h15p14---------|
|-15---------------15-14-12-15--------------15-14-17-|
|----------------------------------------------------|
|----------------------------------------------------|
|----------------------------------------------------|
|----------------------------------------------------|
guitar 1 outro harmony
|----20-18-17h18p17-----------20-18-17h18p17---------|
|-18---------------18-17-15-18--------------18-17-20-|
|----------------------------------------------------|
|----------------------------------------------------|
|----------------------------------------------------|
|----------------------------------------------------|

visit our myspace!

comments
We did not receive enough feedback on this tab! Please rate:
print report bad tab
1 2 3 4 5
I want to post or [tab]
guest
You may want to rate the tab now too:
select rating
Please do not post tabs as comments. Select "correction" instead!