Oops, an error
Loading. Please wait.

The Seven Deadly Sins - Wrap Their Bodies Up In Stars And Stripes Tab

155 views 3 this week
no commentswrite comment
1 2 3 4 5
please rate
add to favorites
launch autoscroll
font size
0
reset
how to read this tab
guitar tuner
Autoscroll
slow
fast
+/-
esc
set tempo
stop
Help us to improve Ultimate-Guitar.com Take our survey!
×
Author
Difficulty
Tuning
intermediate
C G C F A D
The seven deadly sins

“wrap their bodies in stars and stripes”

drop c

Guitar 1 Intro clean
|----------------------------|---------------------------|
|---7--6--7--9--11--12--11--9|---7--6--7--9--11--9--7—-6-|
|----------------------------|---------------------------|
|----------------------------|---------------------------|
|-66-66-44-66-88--99--99—-99-|-66-66-44-66-88--99-88-66—-|
|----------------------------|---------------------------|
guitar 2 intro clean
|----------------------------|----------------------------|
|-7~----------6~-------------|-7~----------9~-------------|
|-8~----------6~-------------|-8~----------10~------------|
|-8~----------4~-------------|-8~----------10~------------|
|-6~----------4~-------------|-6~----------8~-------------|
|----------------------------|----------------------------|
Guitar 1 continued
|----------------------------|-----------------------------|
|---7--6--7--9--11--12--11—-9|--7--6--7--9--11--9--7---6—7-|
|----------------------------|-----------------------------|
|----------------------------|-----------------------------|
|-66-66-44-66-88--99--99—-99-|66-66-44-66-88--99-88-66-4-6~|
|----------------------------|-----------------------------|
guitar 2 intro clean continued
|----------------------------|----------------------------|
|-11~---------12~------------|-11~--------9~------------7~|
|-11~---------11~------------|-11~--------10~-----------8~|
|-9~----------9~-------------|-9~---------10~-----------8~|
|-9~----------9~-------------|-9~---------8~------------6~|
|----------------------------|----------------------------|

guiatr 1 electric intro
|-------tremelo picked--------------------------------------------------|
|-----------------------------------------------------------------------|
|-----------------------------------------------------------------------|
|----------------------------------------------------101010-888-777-555-|
|---------888-777---------888-101010---------888-777--------------------|
|-000-000---------000-000------------000-000----------------------------|
  xxx xxx         xxx xxx            xxx xxx
guitar 2 electric intro 
|-----------------------------------------------------------------------|
|-----------------------------------------------------------------------|
|-----------------------------------------------------------------------|
|-0----------------------------------0----------------------------------|
|-0----------------------------------0----------------------------------|
|-0----------------------------------0----------------------------------|
guitar 1 pre verse
|------------------------------------------------|
|------------------------------------------------|
|------------------------------------------------|
|--------------------8p7--------------------10p8-|
|---8p7—10p8—8p7-8p7------8p7—-10p8—8p7-8p7------|
|-00---0----0---0---0---00----0----0---0---0-----|
  xx   x    x   x   x   xx    x    x   x   x    
guitar 2 pre verse
|-----------------------------------------------|
|-----------------------------------------------|
|-----------------------------------------------|
|-8---------------------7-----------------------|
|-8---------------------7-----------------------|
|-8---------------------7-----------------------|

guitar 1 pre verse
|-----------------------------------------------|
|-----------------------------------------------|
|-----------------------------------------------|
|--------------------8p7-----------10p8p7-------|
|---8p7—10p8—8p7-8p7------8p7—10p8----—--10p8p7-|
|-00---0----0---0---0---00---0----0-------------|
  xx   x    x   x   x   xx   x    x
|-----------------------------------------------|
|-----------------------------------------------|
|-----------------------------------------------|
|-5---------------------5-----------------------|
|-5---------------------5-----------------------|
|-5---------------------5-----------------------|

verse both guitars 
|----------------------------------------------|
|----------------------------------------------|
|----------------------------------------------|
|-0----------------------0---------------------|
|-0-------------3p2------0-------------3p2-3h5-|
|-0-000000-3p2-0---0-3p2-0-000000-3p2-0---0----|
    xxxxxx     x   x       xxxxxx     x   x
verse both guitars continued
|-------------------------------------------|end 1-|--end-2---|
|-------------------------------------------|------|----------|
|-------------------------------------------|------|----------|
|-0----------------------0------------------|------|-55556666-|
|-0-------------3p2------0-------------3p2--|------|-33334444-|
|-0-000000-3p2-0---0-3p2-0-000000-3p2-0---0-|-3*---|----------|
    xxxxxx     x   x       xxxxxx     x   x

guitar 1 chorus
|--------------------------------------------------------------------------|
|--------------------------------------------------------------------------|
|77777777--------------------------77777777--------------------------------|
|7777777788888888777777775555xxxx557777777788888888101010101010101055555555|
|5555555588888888777777775555xxxx555555555588888888101010101010101055555555|
|--------88888888777777775555xxxx55--------88888888101010101010101055555555|

guitar 2 chorus
|-------------x3-------------------|--------------------------------20~~~~~|
|-15------17------18~~~~~~~~~~~~~~~|-15------17-----18---------------------|
|----------------------------------|---------------------------------------|
|----------------------------------|---------------------------------------|
|----------------------------------|---------------------------------------|
|----------------------------------|---------------------------------------|
Breakdown both guitars
|-----------------|----------------|-----------------|
|-----------------|----------------|-----------------|
|-----------------|----------------|-----------------|
|-----------------|----------------|-------------321-|
|-----------------|----------------|-------------321-|
|-000-000-000—111-|-000-000-000--3*|-000-000-000-321-|
  xxx xxx xxx xxx   xxx xxx xxx      xxx xxx xxx
Breakdown both guitars continued
|-----------------|-----------(8)--------------|
|-----------------|-------------(8)------------|
|-----------------|---------------(8)----------|
|-----------------|-----------------(8)-----0~-|
|-----------------|-------------------(8)---0~-|
|-000-000-000--3*-|-000-000-000---------(8)-0~-|
  xxx xxx xxx       xxx xxx xxx
interlude guitar 1 clean
|--------------------------------------------------------------------------|
|--------------------------------------------------------------------------|
|--------------------------------------------------------------------------|
|--------------8p7--------------10p8--------------8p7--------------1087----|
|-8p7—10p8—8p7-----8p7—10p8—8p7------8p7—10p8—8p7-----8p7—10p8-8p7-----1087|
|0---0----0---0---0---0----0---0----0---0----0---0---0---0----0---0--------|
Interlude guitar 1 continued
|------------------|
|------------------|
|------------------|
|------------------|
|--8-8-8-8-7-7-5-5-|
|-8-8-8-8-7-7-5-5--|
interlude guitar 2
|----------------------------------------------------------------|
|----------------------------------------------------------------|
|----------------------------------------------------------------|
|-00000000000000333333333333333300000000000000003333333333333333-|
|-00000000000000333333333333333300000000000000003333333333333333-|
|-00000000000000333333333333333300000000000000003333333333333333-|
 Pm-------------------------------------------------------------
Interlude guitar 2 continued
|------------------|
|------------------|
|------------------|
|-8888888877775555-|
|-8888888877775555-|
|-8888888877775555-|
Pm----------------

intro
electric intro
pre verse
verse
chorus
pre verse
chorus
pre verse
breakdown
interlude
pre verse
verse
chorus

Please visit our my space!

Suggest correction
Give kudos to tab author, rate the tab!
1 2 3 4 5
comments
print report bad tab
guest
You may want to rate the tab now too:
select rating
Please do not post tabs as comments. Select "correction" instead!