Oops, an error
Loading. Please wait.

The Shakedown Project - Caroline Tab

98 views 1 this week
no commentswrite comment
1 2 3 4 5
please rate
add to favorites
launch autoscroll
font size
0
reset
how to read this tab
guitar tuner
Autoscroll
slow
fast
+/-
esc
set tempo
stop
Help us to improve Ultimate-Guitar.com Take our survey!
×
Author
Difficulty
advanced
ARTIST: THE SHAKEDOWN PROJECT
SONG: CAROLINE

http://www.youtube.com/watch?v=jlSvjTZ36W0
https://www.facebook.com/theshakedownproject



CHORDS USED
     VERSE                          BRIDGE
   Am     G     F       E   A/C    Dm   Am   E
---0------x-----x-------0----x--|---5----5---7---|
---1------3-----1-------0----x--|---6----7---9---|
---2------4-----2-------1----5--|---7----7---9---|
---2------5-----3-------2----7--|---7----5---9---|
---0------5-----3-------2----7--|---5----5---7---|
---0------x-----x-------0----x--|--------5-------|



Keep an eye on the chord charts because kris uses some weird ones, and normally mutes 
the low e string with his thumb for the chords that need it.


INTRO:

Am      G     F        E
  Cold night bring me hope

A          G        A/C        E
  Bring me time to change my life

  A   G             F        E
If I sing a little bring you down

 A       G           E        A
Why i bring my feet home at night



RIFF 1:

------------------------------------|-------------------------------|
------------------------------------|-------------------------------|
------------------------------------|-------------------------------|
------------------------------------|-------------------------------|
------------------------------------|-------------------------------|
--5---5-3-3---3-0-0-1-0---5---5-0---|-5---5-3-3---3-/8-8-7-7---7-0--|



---------------------------------|--------------------------------|
---------------------------------|--------------------------------|
---------------------------------|--------------------------------|
---------------------------------|--------------------------------|
---------------------------------|--------------------------------|
--5---5-7-7---7-/8-8-/12-12\--7-7|--5---5-3-3---3-0-0-1-0-5--5-0--|


VERSE:

Am    G     F       E
 Lets enchant your soul

A      G       A/C     E
Make you forget this hole

    A      G          F     E
For five minutes lets erase time

A      G         E      G
No worries left in your mind.


BRIDGE:

D  D  D  D    A    A   A   A
   If i could move your way

E  E  E  E    A  A  A  A
Take a step off every day

D  D  D  D  C  C  C C E-E-E-E-E-E-E-F-E!
Would you bring me round to youuuuuuuuu!


CHORUS:

A      G      C      D
Caroline

A      G      C      D
You got me broke all the time

A      G      C      D
You got me fed to the lion

A      G      C      D
You got me hard all the time



MOAR RIFF!

------------------------------------|------------------------------------|
------------------------------------|------------------------------------|
------------------------------------|------------------------------------|
------------------------------------|----------------------------3-------|
----------------------------3-------|--5---5-3-5---5-3-5---5-3-5---5-3---|
--5---5-3-5---5-3-5---5-3-5---5-3---|------------------------------------|


------------------------------------|------------------------------------|
------------------------------------|------------------------------------|
------------------------------------|------------------------------------|
------------------------------------|------------------------------------|
----------------------------3-------|--5---5-3-5---5-3-/7-7-5-5-3-3-2-2--|
--5---5-3-5---5-3-5---5-3-5---5-3---|------------------------------------|



then:

VERSE

BRIDGE

CHORUS

RIFF 1 ( OUTRO )

END.




Words and music written by THE SHAKEDOWN PROJECT (c)2012
All rights owned by Kristopher Mitchell, Peter Bruce and David Noble.
Suggest correction
Give kudos to tab author, rate the tab!
1 2 3 4 5
comments
print report bad tab
guest
You may want to rate the tab now too:
select rating
Please do not post tabs as comments. Select "correction" instead!