Oops, an error
Loading. Please wait.

The Sick Men Of Europe - Change Is Sweet But Revenge Is Sweeter When I Break Your Arm Stevie Tab

63 views 1 this week
no commentswrite comment
1 2 3 4 5
3 more votes to show rating
add to favorites
launch autoscroll
font size
0
reset
how to read this tab
guitar tuner
Autoscroll
slow
fast
+/-
esc
set tempo
stop
Help us to improve Ultimate-Guitar.com Take our survey!
×
Author
Difficulty
novice
On overdrive,played semi fast.

e|---------------------------------------------------------------------------|
B|---------------------------------------------------------------------------|
G|----70--50--30--50--30--2320-----------------------------------------------|
D|--50-----------------------------------------------------------------------|
A|---------------------------------------------------------------------------|
E|---------------------------------------------------------------------------|x4

e|---------------------------------------------------------------------------|
B|---------------------------------------------------------------------------|
G|---------------------------------------------------------------------------|
D|---77-5-----77-5---77-5----------------------------------------------------|
A|---55-3-----55-3---55-7----------------------------------------------------|
E|---------------------------------------------------------------------------|

e|---------------------------------------------------------------------------|
B|---------------------------------------------------------------------------|
G|---------------------------------------------------------------------------|
D|---------------------------------------------------------------------------|
A|-----11---10---9----8------------------------------------------------------|
E|---0-9--0-8--0-7-00-6------------------------------------------------------|x4
pm   .    .    .   ..(palm mute the two at 0's at the end part)

e|---------------------------------------------------------------------------|
B|---------------------------------------------------------------------------|
G|---------------------------------------------------------------------------|
D|---------------------------------------------------------------------------|
A|---------2-------5----3-----2----5-----------------------------------------|
E|---0000--0---000-3--0-1--00-0--0-3-----------------------------------------|x2
pm   ....      ...    .    ..    .


e|---------------------------------------------------------------------------|
B|---------------------------------------------------------------------------|
G|---------------------------------------------------------------------------|
D|---------------------------------------------------------------------------|
A|-----11---10---9----8------------------------------------------------------|
E|---0-9--0-8--0-7-00-6------------------------------------------------------|x4
pm   .    .    .   ..(palm mute the two at 0's at the end part)

e|---------------------------------------------------------------------------|
B|-----------------------------------5---------------------------------------|
G|-----757p5--5-757p5--5-757p5-----57-75h7-----------------------------------|
D|----------7--------7--------7--57------------------------------------------|
A|---------------------------------------------------------------------------|
E|-00------------------------------------------------------------------------|
pm ..

e|---------------------------------------------------------------------------|
B|-----------------------------------5---------------------------------------|
G|-----757p5--5-757p5--5-757p5-----57-75h7-----------------------------------|
D|----------7--------7--------7--57------------------------------------------|
A|---------------------------------------------------------------------------|
E|---------------------------------------------------------------------------|

e|---------------------------------------------------------------------------|
B|---------------------------------------------------------------------------|
G|---------------------------------------------------------------------------|
D|---------------------------------------------------------------------------|
A|---------2-------5----3-----2----5-----------------------------------------|
E|---0000--0---000-3--0-1--00-0--0-3-----------------------------------------|x2
pm   ....      ...    .    ..    .

e|---------------------------------------------------------------------------|
B|---------------------------------------------------------------------------|
G|---------------------------------------------------------------------------|
D|--------------------------22-----------------------------------------------|
A|-----11---10---9----8-----22-----------------------------------------------|
E|---0-9--0-8--0-7-00-6-----00-------------------------------------------------|x4
pm   .    .    .   ..       (let ring)

e|---------------------------------------------------------------------------|
B|---------------------------------------------------------------------------|
G|---------------------------------------------------------------------------|
D|------------------12-------------------------------------------------------|
A|-------------12-13--13-12h13-----------------------------------------------|
E|--------12-13--------------------------------------------------------------|x4

e|---------------------------------------------------------------------------|
B|---------------------------------------------------------------------------|
G|---------------------------------------------------------------------------|
D|---------------------------------------------------------------------------|
A|---99-----77---------------------------------------------------------------|
E|---77-----55---------------------------------------------------------------|
   (let both ring)

e|---------------------------------------------------------------------------|
B|---------------------------------------------------------------------------|
G|---------------------------------------------------------------------------|
D|---------------------------------2--------------------2--------------------|
A|---------------------------------2---------555--------2-------555----------|
E|--00-00000---0-0000-000----0000000---000000333--0000000--00000333----------|
pm  .. .....   . .... ...    ......    ......     ......   ....(ends fast) 

(C) The Sick men of Europe...do not steal.
Suggest correction
Give kudos to tab author, rate the tab!
1 2 3 4 5
comments
print report bad tab
guest
You may want to rate the tab now too:
select rating
Wanna post a correction for this tab? Suggest correction