Oops, an error
Loading. Please wait.

The Skies - In It For The Money Bass Tab

53 views 1 this week
no commentswrite comment
1 2 3 4 5
please rate
add to favorites
launch autoscroll
font size
0
reset
guitar tuner
Autoscroll
slow
fast
+/-
esc
set tempo
stop
Help us to improve Ultimate-Guitar.com Take our survey!
×
Author
Difficulty
intermediate
/ = Hammer on
<‘number’ = slide down

Intro-
G------------------|----------6-------------------|-----------6------------|
D------------------|-----6/8-----8--6-------------|------6/8-----8--6------|
A------------------|-------------------8-7-6------|--------------------4/6-|
E----------4---5---|--6------------------------9--|--6---------------------|

G----------6-------------------|----------6-----------|
D-----6/8-----8--6-------------|-----6/8--------------|
A--------------------8-7-6-----|----------------------|
E--6------------------------9--|--6-----------4---5---|

Verse1-
G---------------------|---------------------------|------------------------|
D---------------------|-------6/8-6---------------|------------------------|
A------------------6--|--------------8-7-6-4------|-------3-4-5-6-6--------|
E--6-6---------6------|--6-6-------------------6--|--4-4-------------3-4-5-|

G--------------------------------|
D------------6----8-6---8-6------|
A-------6-8----8------8-----8----|
E--6-6-------------------------x-|

‘Face it honey…’
G-------------------|---------------------|--------------------|-----------|
D-------------------|---------------------|--------------------|-----------|
A----------------6--|---------------------|----3-4-5-6-6-------|-----------|
E--6-6--------6-----|--6-6---------<12----|4-4-----------3-4-5-|--6-<6-----|

‘You dig that gold…’
G-------------------|---------------------|--------------------|
D-------------------|---------------------|--------------------|
A----------------6--|---------------------|----3-4-5-6-6-------|
E--6-6-------6------|--6-6---------<12----|4-4-----------3-4-5-|

G--------------------|---------------------|--------------------|
D--------6---8-6-----|----6/8-6------------|--------------------|
A----6-8---8-----8--4|-----------8-7-6-4---|----3-4-5-6-6-------|
E-6-6----------------|-6-6---------------6-|4-4-----------3-4-5-|

G---------------------------|
D---------------------------|
A------------13-13-13131313-|
E--6----6-------------------|

Chorus-
G---------------------|--------------------|    |----------------------------|
D----------------5----|--------------------|    |----------------------------|
A------------------4--|--------------------|    |----------------------------|
E--4-4-2/4--x3-3-----x|-6-6-4/6---x6-6-4/6-| x2 |2--2-2-2--2-2-2--2-2-2--2-2-|

G------------------------|
D------------------------|
A------------------------|
E--4---4-4-4---4-4-<4----|

VERSE
CHORUS

Solo-
G------------------|-----------------|           ----------------------------|
D------------------|-----------------|           ----------------------------|
A---------4-4-4-44-|-----------------|           6--6-6-6--6-6-6--6-6-6--6-6-|
E--6--6-6----------|4--4-4-2-2-2-2-4-|x3 w/fills ----------------------------|

G----------------------------------|
D----------------------------------|
A--9---9-9-9---9-9-9---9-9-9---9-9-|
E----------------------------------|

INTRO (riff)
VERSE
CHORUS (slightly different, wait to go the F sharp 2 bars later)
Suggest correction
Give kudos to tab author, rate the tab!
1 2 3 4 5
comments
print report bad tab
guest
You may want to rate the tab now too:
select rating
Wanna post a correction for this tab? Suggest correction