Oops, an error
Loading. Please wait.

The Slakadeliqs - Love Controls The Sun Feat Justin Nozuka Tab

560 views 3 this week
no commentswrite comment
1 2 3 4 5
please rate
add to favorites
launch autoscroll
font size
0
reset
how to read this tab
guitar tuner
Autoscroll
slow
fast
+/-
esc
set tempo
stop
Help us to improve Ultimate-Guitar.com Take our survey!
×
Author
Difficulty
intermediate
-------------------------------------------------------------------------------
     Love Controls The Sun feat. Justin Nozuka - THE SLAKADELIQS
-------------------------------------------------------------------------------
Tabbed by: Josh Mottale
E-mail: jmottale@gmail.com
Tuning: Standard EAGBDe 

Band website: http://theslakadeliqs.bandcamp.com/ - share the love!

Note: I realize there are two guitar parts, but I'll only tab the main guitar part. 
Also I highly doubt this is 100% correct so feel free to throw in your corrections
 in the comments if you have any. Also if anyone knows the exact lyrics, could 
you please email them to me? thanks a lot!

Intro and Verse
e|--------0---------------------------------------------------------------------|
B|---------------------------0---------------2------------------3---------------|
G|---0------0----------0-------0------0--------0------2-----------2-------------|
D|------2-----------------0-------------2----------------0----------------------|
A|----------------------------------0------0--------2--------2------------------|
E|-0------------2--3------------------------------------------------------------|

e|-----------------------------------------------0---3------------0------------|
B|------------------------------0-----------1----1--(1)-----3------3-----------|
G|---0---------2----------2-------2-----------0---------------3------3---------|
D|------2---------2----------3-------3-----------------------------------------|
A|----------------------------------------0--------------3---------------------|
E|-0--------2----------3-------------------------------------------------------| 

Pre-Chorus
e|----------------------------------------------------------------------------|
B|---5--------------------7---------------5--------------5--------------------|
G|-----4------4--------------6------6-------6------6-------6------------------|
D|--------------4----------------------6------6-------6-----------------------|
A|-3-------------------5------------------------------------------------------|
E|---------3----------------------5--------------5----------------------------| 
   CMaj7  GMaj7       DMaj7      AMaj7 
   "Outta my, outta my,    outta my ,      way
e|------------------------------------------------------------------------------|
B|---5--------------------7---------------5--------------5---------1------1-1---|
G|-----4------4--------------6------6-------6------6-------6--------2-----2-2---|
D|--------------4----------------------6------6-------6----------2----2---2-2---|
A|-3-------------------5--------------------------------------------------------|
E|---------3----------------------5--------------5-------------1-----------1--1-| 
   CMaj7  GMaj7       DMaj7        AMaj7 
   "She.. ever         far            a-way"

Chorus - you really only need the chords for this part (listen to the song for rhythm)
e|---0----------0--------0------0-------------------------------------------------|
B|---0----------3--------5------5-------------------------------------------------|
G|---1----------4--------6------7-------------------------------------------------|
D|---2----------4--------6------7-------------------------------------------------|
A|---2----------x--------x------x-------------------------------------------------|
E|---0----------3--------5------7-------------------------------------------------|
     E       GMaj13    AMaj7  BMaj11 (not always played)
     "Brighten up your day, your day."

After first chorus, play Cmaj7, GMaj7, DMaj7, AMaj7 to return to verse. 

Again, sorry that this isn't precise. Hope you enjoy playing it though!
Suggest correction
Give kudos to tab author, rate the tab!
1 2 3 4 5
comments
print report bad tab
guest
You may want to rate the tab now too:
select rating
Please do not post tabs as comments. Select "correction" instead!