Oops, an error
Loading. Please wait.

The Slickers - Johnny Too Bad Chords

23,594 views 48 this week
no commentswrite comment
1 2 3 4 5
excellent!
x 10
add to favorites
launch autoscroll
font size
0
reset
transpose
0
reset
display chords
guitar tuner
Autoscroll
slow
fast
+/-
esc
set tempo
stop
Help us to improve Ultimate-Guitar.com Take our survey!
×
Author
-------------------------------------------------------------------------------
                            Johnny Too Bad - The Slickers
-------------------------------------------------------------------------------
Tabbed by: Bumcivilian

Standard tuning,play barre chords in a reggae style on the off beat.

Intro: G D C G

G
Walking down the road
             D
With your pistol in your waist,
                  C       G
Johnny you're too bad.
G
Walking down the road
             D
With your ratchet in your waist,
                  C        G
Johnny you're too bad.

              C                                         D
You're just robbing and you're stabbing and you're looting and you're shooting
             G        G
Now you're too bad. (Too bad)
              C                                        D
You're just robbing and you're stabbing and you're looting and you're shooting
             G        G
Now you're too bad. (Too bad)

G                             D
One of these days, when you hear a voice say come,
                C        G
Who you gonna run to?
G                             D
One of these days, when you hear a voice say come,
                C        G
Who you gonna run to?

               C                  D
You're gonna run to the rock for rescue,
               G
There will be no rock.
               C                  D
You're gonna run to the rock for rescue,
               G
There will be no rock.

Organ solo (G D C G x2):


e|--------------------------------8---8---8---8-----------|
B|----------------------------7h8---8---8---8---8---------|
G|----------7~~~--7~~--7~~~------------------------7h9-7~~|
D|-----5h7-----------7------------------------------------|
A|-5h7----------------------------------------------------|
E|--------------------------------------------------------|

e|---------------------------------8---8---8---8----------|
B|---6--5h6-5------------------7h8---8---8---8---8--------|
G|-7----------7--4~~-4h5--7~~----------------------7h9-7~~|
D|--------------------------------------------------------|
A|--------------------------------------------------------|
E|--------------------------------------------------------|

Repeat all until the last verse which repeats until fade.
Thanks.
Suggest correction
comments
print report bad tab
guest
You may want to rate the tab now too:
select rating
Please do not post tabs as comments. Select "correction" instead!