Oops, an error
Loading. Please wait.

The Soft Boys - Kingdom Of Love Tab

1,844 views 6 this week
no commentswrite comment
1 2 3 4 5
accurate
x 2
add to favorites
launch autoscroll
font size
0
reset
how to read this tab
guitar tuner
Tab Pro tools
  • play this tab
  • loop segment
  • change instrument
  • show fretboard
  • metronome
Autoscroll
slow
fast
+/-
esc
set tempo
stop
Contributor
Difficulty
intermediate
Song:   Kingdom Of Love
Artist: The Soft Boys
Album:  Underwater Moonlight

Intro/Verse
Guitar 1 - Quite clean w Small ammount of sharp drive
e|---------------0---3------|
B|-----------2---3---0------|
G|-----------2---2---0------|
D|-----------2---0---0--0---|
A|---2-4-2-2------------x---|
E|---0-0-0-0------------3---|
     E       A   Dsus   G

Guitar 2 - Similar sound to guitar 1 bridge pickup
e|---x-x-x-x-x-x-------0---|
B|---x-x-x-x-x-x---2---3---|
G|---x-x-x-x-x-x---2---2---|
D|---x-x-x-x-x-x---2---0---|
A|-------------------------|
E|-------------------------|
     E             A   Dsus

Bridge
Guitars 1 and 2
e|-----------------------------------------|
B|-----------------------------------------|
G|-----------------------------------------|
D|----------------------7~---6~---5~----6~-|
A|---7777666655556666-------------5~-------|
E|---5555444433334444-55---44---33----44---|     play this 2 times
     *palm-mute

e|---------------------------------------------------|
B|---------------------------------------------------|
G|-----------7~----6~----5~---6----------------------|
D|---5555----------------5~-------7777666655556666---|
A|---3333--55---44----33----44----5555444433334444---|
E|---------------------------------------------------| play this x2 before chorus

Chorus
Guitars 1 and 2 play the classic psych riff
e|----------------------0--------                                e|---0---|
B|------------------0h2--0-------                                B|---0---|
G|--------------0h2-------1------                                G|-------|
D|--------0-0h4------------2-----                                D|-------|
A|-------4------------------2~---                                A|-------|
E|---0~-------------------------- repeat this until it ends with E|-------|
     E   D      A       E

Middle Eight this is played after the 2nd bridge
Guitars 1 and 2 play slight variations on this riff
e|------7------7-7------7---7------7--------7--------0-----------------|
B|-------7-----7-7-------7--7-----7----------7--------0-------0--------|
G|---------8h9---9--8h9-----8----8----8h9p8--8----------1-1h2---1--1---|
D|---/9---------------------9---9--------------9\--2---------------2---|
A|---------------------------------------------------------------------|
E|---------------------------------------------------------------------|
      B                                            E
e|-------------------------------------|
B|-------------------------------------|
G|-----9-9-9-7-7-----------------------|
D|-----9-9-9-7-7--------------7----9---|
A|-----7-7-7-5-5-7-7-------4/5--5/7----|
E|---0-----------5-5---0~--------------| Play this whole section twice
     E       D   A

Then back to verse and bridge and then chorus riff with variations till the end. I'll 
tab these variations and solo tomorrow.
comments
We did not receive enough feedback on this tab! Please rate:
print report bad tab
1 2 3 4 5
I want to post or [tab]
guest
You may want to rate the tab now too:
select rating
Please do not post tabs as comments. Select "correction" instead!