Oops, an error
Loading. Please wait.

The Soldier Thread - Erin Acoustic Tab

246 views 1 this week
no commentswrite comment
1 2 3 4 5
2 more votes to show rating
add to favorites
launch autoscroll
font size
0
reset
how to read this tab
guitar tuner
Autoscroll
slow
fast
+/-
esc
set tempo
stop
Help us to improve Ultimate-Guitar.com Take our survey!
×
Author
Difficulty
Capo
novice
2nd fret
The Soldier Thread - Erin
www.TheSoldierThread.com
---------------------------------------------

Notes:

This is based of off the acoustic video on Youtube - http://www.youtube.com/watch?v=WvfPcPyPfKI

First, tune B string up a half step to C (e a g d C e)

Then, Capo 2 (Chords relative to capo)

***Listen for the chord changes***

Intro - 2x:

--0------0---------------|
--0------0---------------|
--2------0---------------|
--3------2---------------|
--3------3---------------|
--x------x---------------|

Verse 1 - 2x:

--0-----0-----0-----0----|
--0-----0-----0-----0----|
--5-----4-----2-----0----|
--7-----5-----3-----2----|
--7-----5-----3-----3----|
--x-----x-----x-----x----|

Chorus - 2x:

--0------0---------------|
--0------0---------------|
--2------0---------------|
--3------2---------------|
--3------3---------------|
--x------x---------------|

Intro - 1x

Verse - 2x

Chorus - 2x

Bridge - 2x:

--0------0-----0-----0---|
--0------0-----0-----0---|
--2------5-----0-----0---|
--3------7-----2-----2---|
--3------7-----3-----2---|
--x------x-----x-----x---|

Chorus - 2x

Outro - 2x:

--0------0-----0-----0---0-|
--0------0-----0-----0---0-|
--2------5-----0-----0---2-|
--3------7-----2-----2---3-|
--3------7-----3-----2---3-|
--x------x-----x-----x---x-|

Fin!
Suggest correction
Give kudos to tab author, rate the tab!
1 2 3 4 5
comments
print report bad tab
guest
You may want to rate the tab now too:
select rating
Wanna post a correction for this tab? Suggest correction