Oops, an error
Loading. Please wait.

The Soul Is Outside Of The Body chords

22 views 1 this week
no commentswrite comment
1 2 3 4 5
3 more votes to show rating
add to favorites
×
Save as Personal and add changes to this tab that will be seen only by you. Learn more ›
×
You can save this tab as Personal to edit and correct it or add notes. All changes will be seen only by you. Learn more »
launch autoscroll
font size
0
reset
transpose
0
reset
simplify chords
display chords
guitar tuner
edit
Autoscroll
slow
fast
+/-
esc
set tempo
stop
Strumming
There is no strumming pattern for this song yet. and get +5 IQ
   B    A    G# C#9sus G    F  
e|-7----5----4----4----3----2--|
B|-7----5----4----4----3----2--|
G|-8----6----5----4----4----3--|
D|-9----7----6----4----5----4--|
A|-9----7----6----4----5----4--|
E|-7----5----4----x----3----2--|

Gadd9 Aadd9 GmM7/D BmM7/F# Am6/C Em7  DM7 
e|-5----7-----6------10-----x------x---x----6------x-----x-----2|
B|-3----5-----7------11-----7-----12---10---7------7-----3-----0|
G|-4----6-----7------11-----9-----12---11---6------7-----3-----3|
D|-x----x-----5------9------7-----12---11---9------7-----4-----x|
A|-x----x-----5------9------x-----x----x----6------x-----x-----3|
E|-3----5-----x------x------8-----12---10---x------8-----3-----x|

 Ebm7#5 D7/C GmM7 Gbadd11b5/D
e|-6------x-----x-----2|
B|-7------7-----3-----0|
G|-6------7-----3-----3|
D|-9------7-----4-----x|
A|-6------x-----x-----3|
E|-x------8-----3-----x|

  DM7b5 
e|-x-------|
B|-9-------|
G|-11------|
D|-11------|
A|-x-------|
E|-10------|

[Verse]

B      A     G# 
If we all are one
C#9sus4     G F#
Are we all alone?

B      A        G# 
Between Moon and sun
C#9sus4     G F#
Trapped on this blue stone


[Chorus]

Gadd9 Aadd9 GmM7/D BmM7/F#   Am6/C     Em7    DM7
Oh    The  Soul was Never  within was never without 


[Verse 2]

B      A        G# 
We are born in blood
C#9sus4     G F#
Bathed in our own sin

B      A        G# 
We all came from cum
C#9sus4     G F#
And here we're still racing


[Chorus]

Gadd9 Aadd9 GmM7/D BmM7/F#   Am6/C     Em7    DM7
Oh    The  Soul was Never  within was never without 


[Instrumental break]

B      A     G# 
C#9sus4     G F#
Ebm7#5  D7/C GmM7 Gbadd11b5/D


[Chorus]

Gadd9 Aadd9 GmM7/D BmM7/F#   Am6/C     Em7    DM7
Oh    The  Soul was Never  within was never without 


[Outro] 

              Am6/C     Em7    DM7
Was never within was never without 
              Am6/C     Em7    Dmaj7b5
Was never within was never without 
Suggest correction
Creating personal tab
Creating personal tab
You can edit any tab online and save it as your Personal.

You can edit, replace or remove any tab part or add personal notes – all changes will be seen only by you.

Personal tabs can be accessed anytime from any device, even offline.
Learn more »
Give kudos to tab author, rate the tab!
1 2 3 4 5
comments
print report bad tab
guest
You may want to rate the tab now too:
select rating
Wanna post a correction for this tab? Suggest correction