Oops, an error
Loading. Please wait.

The Speed Of Sound In Seawater - Romanticore Tab

2,497 views 6 this week
no commentswrite comment
1 2 3 4 5
x 3
add to favorites
launch autoscroll
font size
0
reset
how to read this tab
guitar tuner
Autoscroll
slow
fast
+/-
esc
set tempo
stop
Help us to improve Ultimate-Guitar.com Take our survey!
×
Author
Difficulty
intermediate
Romanticore
By The Speed of Sound in Seawater

Play this with a guitar

Legend

s - slide

(intro has been omitted) 

   VERSE

E |----------|--3-------------------------|----------|
B |--5--4----|----------------------------|--5--4----|
G |----------|--------------0-------------|----------|
D |----------|--2-------------------------|----------|
A |--4--3----|--------------------0--2----|--4--3----|
E |----------|--------------3--3----------|----------|

   I liked you better...

--3-------------------------|----------|--3-------------------------|----------|
----------------------------|--5--4----|----------------------------|--5--4----|
--------------0-----4--2----|----------|--------------0-------------|----------|
--2--------------0----------|----------|--2-------------------------|----------|
----------------------------|--4--3----|--------------------0--2----|--4--3----|
--------------3-------------|----------|--------------3--3----------|----------|

            CHORUS

--3s-7----|-----------7--------5-------------|
----------|--8s----5-------------------------|
----------|----------------------------------|
--2--5----|-----------5--------4-------------|
----------|--7s----3-------------------------|
----------|----------------------------------|
              Didn't even have to...

-----------7----------------------|-----------7--------5-------------|
--8s----5-----------7-------------|--8s----5-------------------------|
----------------------------------|----------------------------------|
-----------5----------------------|-----------5--------4-------------|
--7s----3-----------6-------------|--7s----3-------------------------|
----------------------------------|----------------------------------|


-----------7----------------------|-----------7--------5-------------|
--8s----5-----------7-------------|--8s----5-------------------------|
----------------------------------|----------------------------------|
-----------5----------------------|-----------5--------4-------------|
--7s----3-----------6-------------|--7s----3-------------------------|
----------------------------------|----------------------------------|


-----------7----------------------|-----------7--------5-------------|
--8s----5-----------7-------------|--8s----5-------------------------|
----------------------------------|----------------------------------|
-----------5----------------------|-----------5--------4-------------|
--7s----3-----------6-------------|--7s----3-------------------------|
----------------------------------|----------------------------------|
                                    

-----------7----------------------|----------|--3-------------------------|
--8s----5-----------7-------------|--5--4----|----------------------------|
----------------------------------|----------|--------------0-------------|
-----------5----------------------|----------|--2-------------------------|
--7s----3-----------6-------------|--4--3----|--------------------0--2----|
----------------------------------|----------|--------------3--3----------|


----------|--3-------------------------|----------|--3-------------------------|
--5--4----|----------------------------|--5--4----|----------------------------|
----------|--------------0-----4--2----|----------|--------------0-------------|
----------|--2--------------0----------|----------|--2-------------------------|
--4--3----|----------------------------|--4--3----|--------------------0--2----|
----------|--------------3-------------|----------|--------------3--3----------|

                       BRIDGE

----------|--3s-7----|-------|-----------------------2----|
--5--4----|----------|--5----|--4-------------------------|
----------|----------|-------|----------------------------|
----------|--2--5----|-------|-----------------------1----|
--4--3----|----------|--4----|--3-------------------------|
----------|----------|-------|----------------------------|
                        The vacant gut...

--3--------3--5--------5----|--7----------------|-------|
----------------------------|--------7----------|--5----|
----------------------------|-------------------|-------|
--2--------2--4--------4s---|--5----------------|-------|
----------------------------|--------6----------|--4----|
----------------------------|-------------------|-------|

-----------------------2----|--3--------3--5--------5----|--7-------|
--4-------------------------|----------------------------|-----7----|
----------------------------|----------------------------|----------|
-----------------------1----|--2--------2--4--------4s---|--5-------|
--3-------------------------|----------------------------|-----6----|
----------------------------|----------------------------|----------|

The parts repeat from here on like this:

CHORUS
VERSE
BRIDGE

and that's it
Suggest correction
Give kudos to tab author, rate the tab!
1 2 3 4 5
comments
print report bad tab
guest
You may want to rate the tab now too:
select rating
Wanna post a correction for this tab? Suggest correction