Oops, an error
Loading. Please wait.

The Spin Room - Fairest One Of All Tab

version 1
version 1

Whole song

2,631 views 9 this week
4 commentsread comments
1 2 3 4 5
accurate
x 3
add to favorites
launch autoscroll
font size
0
reset
how to read this tab
guitar tuner
Autoscroll
slow
fast
+/-
esc
set tempo
stop
Help us to improve Ultimate-Guitar.com Take our survey!
×
Author
Difficulty
novice
This is my first guitar tab...so it may not be very accurate.

Well, i dunno what he plays for the bar/power chords intro but the instrumental 
after that is this:
e|-------------------------------------------------0-0-0-0-0-------|
B|-1-1-----3-3-----1-1-----3-3-----1-1-1-1-1-0-0-0-----------3-1---|
G|-----0-0-----0-0-----0-0-----0-0---------------------------------|
D|-----------------------------------------------------------------|
A|-----------------------------------------------------------------|
E|-----------------------------------------------------------------|

Then i play the the chords for the chorus like this:
C                        Am                        F
And if you don't believe she's, the fairest one of all
                       G             Em
Met her at the crystal ball, She was bearing it all.
C                         Am                            F
And if you don't believe, just take one look at her face
                              G
Because she smiles with grace, this girl you can't wait to taste.


The C chord in the beginning actually starts 2 counts before the "and if you don't 
believe" so play it like that.

I'm unsure of how he plays the riff after the second chorus but i'll post as soon 
as i figure it out.
Suggest correction
Give kudos to tab author, rate the tab!
1 2 3 4 5
comments
print report bad tab
4 comments total. Showing first comments.
0 reply
Bloodslider 137 wrote on May 17 2014, 01:26 pm, edited at 01:27 pm

not bad, the intro is:e|--------------------------------------------------------|B|--------------------------------------------------------|G|--------------------------------------------------------|D|--------------------------------------------------------|A|-3-3-3---3--3--0-0-0---0--0-----------------------------|E|-----------------------------3-3-3---3--3--1-1-1---1--1-|first instrumental is good but in the second end is changing a littlee|-----------------------------------------------------0-0-0-------|B|-1-1-----3-3-----1-1-----3-3-----1-1-1-1-1-0-0-0-1-1-------3-1-1-|G|-----0-0-----0-0-----0-0-----0-0---------------------------------|D|-----------------------------------------------------------------|A|-----------------------------------------------------------------|E|-----------------------------------------------------------------|the chords is nice, but you can also try it:A F CAnd if you don't believe she's, the fairest one of all ! EmMet her at the crystal ball, She was bearing it all.A F CAnd if you don't believe, just take one look at her face ! !!!!Because she smiles with grace, this girl you can't wait to taste.
I don't know what ! chord is it, but it is sth like that:|---|---|---|-5-|-5-|-3-I can't figure out the solo, but we have the rest ;)

0 reply
Bloodslider 137 wrote on May 17 2014, 01:29 pm, edited at 01:33 pm

omg, editing fked up comment...

not bad, the intro is:
e|--------------------------------------------------------|
B|--------------------------------------------------------|
G|--------------------------------------------------------|
D|--------------------------------------------------------|
A|-3-3-3---3--3--0-0-0---0--0-----------------------------|
E|-----------------------------3-3-3---3--3--1-1-1---1--1-|

first instrumental is good but in the second end is changing a little
e|-----------------------------------------------------0-0-0---------|
B|-1-1-----3-3-----1-1-----3-3-----1-1-1-1-1-0-0-0-1-1-------3-1---1-|
G|-----0-0-----0-0-----0-0-----0-0-----------------------------------|
D|-------------------------------------------------------------------|
A|-------------------------------------------------------------------|
E|-------------------------------------------------------------------|
the chords are nice, but you can also try it:
A F C
And if you don't believe she's, the fairest one of all ! Em
Met her at the crystal ball, She was bearing it all.
A F C
And if you don't believe, just take one look at her face ! !!!!
Because she smiles with grace, this girl you can't wait to taste.

I don't know what ! chord is it, but it is sth like that:

|---
|---
|---
|-5-
|-5-
|-3-

I can't figure out the solo, but we have the rest ;)

0 reply
Bloodslider 137 wrote on May 17 2014, 01:34 pm, edited at 01:36 pm

not bad, the intro is:
e|----------------------------------------------------------------|
B|---------------------------------------------------------------|
G|---------------------------------------------------------------|
D|---------------------------------------------------------------|
A|-3-3-3---3--3--0-0-0---0--0-----------------------------|
E|-----------------------------3-3-3---3--3--1-1-1---1--1-|

first instrumental is good but in the second end is changing a little
e|-----------------------------------------------------0-0-0---------|
B|-1-1-----3-3-----1-1-----3-3-----1-1-1-1-1-0-0-0-1-1-------3-1---1-|
G|-----0-0-----0-0-----0-0-----0-0-----------------------------------|
D|-------------------------------------------------------------------|
A|-------------------------------------------------------------------|
E|-------------------------------------------------------------------

|the chords are nice, but you can also try it
:A F C
And if you don't believe she's, the fairest one of all
! Em
Met her at the crystal ball, She was bearing it all.
A F C
And if you don't believe, just take one look at her face
! !!!!
Because she smiles with grace, this girl you can't wait to taste.

I don't know what ! chord is it, but it is sth like that:
|---
|---
|---
|-5-
|-5-
|-3-

I can't figure out the solo, but we have the rest ;)

guest
You may want to rate the tab now too:
select rating
Please do not post tabs as comments. Select "correction" instead!