Oops, an error
Loading. Please wait.

The Spitting Vomits - Oh Canada Tab

258 views 1 this week
no commentswrite comment
1 2 3 4 5
2 more votes to show rating
add to favorites
launch autoscroll
font size
0
reset
how to read this tab
guitar tuner
Autoscroll
slow
fast
+/-
esc
set tempo
stop
Help us to improve Ultimate-Guitar.com Take our survey!
×
Author
Difficulty
intermediate
Song : Oh Canada ! (Oh America !)
Artist : The Spitting Vomits
Tabbed by : Misterpunk007@hotmail.com / MTL-HC
Sound : Max Overdrive (Hard-Core)
Interested In This MTL-HC band ? E-mail me !

(effects)
b=bend up
r=release bend
~=vibrato
/=slide up
\=slide down
*=trill
tr=tremolo pick
p.m.=palm mute
x=muffled string or note
h=hammer on
p=pull off


Oh Canada ! (Slow and Smooth)
E|-----------------------------------|
B|-----------------------------------|
G|-----------------------------------|
D|--2--5--5-----2--3--5--7--0--------|
A|-----------3-----------------------|
E|-----------------------------------| (X2)


Be careful this is not a liberal sponsor song !

E|--------------------------------------------------|
B|--------------------------------------------------|
G|--------------------------------------------------|
D|--------------------------------------------------|
A|-2--2--2--2--5--5--7--7--8-8-8-8\5--5--3--3--2--2-|
E|-0--0--0--0--3--3--5--5--6-6-6-6\3--3--1--1--0--0-|(X2)


Killing above you, Fucking above you, Shitting above you !

E|-------------------------------------------|
B|-------------------------------------------|
G|-------------------------------------------|
D|-------------------------------------------|
A|-2-2-2/5-5-5/7-7-7/8-8-8-------------------|
E|-0-0-0/3-3-3/5-5-5/6-6-6-------------------| (X6)


They need your vote… C’mon give it to them !

E|-------------------------------------------|
B|-------------------------------------------|
G|-------------------------------------------|
D|-------------------------------------------|
A|-5\4-4/5\4/8-8\5\4/5\4---------------------|
E|-3\2-2/3\2/6-6\3\2/3\2---------------------| (X4)

(Play that one really fast)

E|-----------------------------------|
B|-----------------------------------|
G|-----------------------------------|
D|-4-4-4-/-5-5-5-/-8-8-8-\-5-5-5~----|
A|-2-2-2-/-3-3-3-/-6-6-6-\-3-3-3~----|
E|-----------------------------------| (X6)


Oh Canada ! You know you piss us off !

E|-----------------------------------|
B|-----------------------------------|
G|-----------------------------------|
D|-4--7--7-----0--4--5--7--9--0------|
A|-2--5--5--5--0--2--3--5--7--0------|
E|----------3------------------------| (X2)


Oh Canada ! You’re the best country so far !

E|-----------------------------------|
B|-----------------------------------|
G|-----------------------------------|
D|--2--5--5-----2--3--5--7--0--------|
A|-----------3-----------------------|
E|-----------------------------------|
 
Suggest correction
Give kudos to tab author, rate the tab!
1 2 3 4 5
comments
print report bad tab
guest
You may want to rate the tab now too:
select rating
Wanna post a correction for this tab? Suggest correction