Oops, an error
Loading. Please wait.

The Static Jacks - Into The Sun Chords

636 views 1 this week
no commentswrite comment
1 2 3 4 5
please rate
add to favorites
launch autoscroll
font size
0
reset
transpose
0
reset
display chords
guitar tuner
Autoscroll
slow
fast
+/-
esc
set tempo
stop
Help us to improve Ultimate-Guitar.com Take our survey!
×
Author
Difficulty
novice
Song: Into The Sun
Artist: The Static Jacks
Tabbed By: RLD

Intro Guitar Lick:

E------------------------------------------------|
B------------------------------------------------|
G------------------------------------------------|
D--7------4------4-5-4-----4-5-4----4-5-4--------|
A------------------------------------------5-----|x2
E------------------------------------------------|

E------------------------------------------------|
B--3---------------------------------------------|
G--------2------2-4-2-----2-4-2-----2-4-2--------|
D-------------------------------------------4----|
A------------------------------------------------|
E------------------------------------------------|

Song:
Verse:
            D
And not tonight, not ever
        D
Let me go
                                                           E
Cause sometimes I just did to find ‘nother way through the door
         G
And I got no clue to do it alone

           D                      D
Like a child, you’re build to follow
           D
There you go
                                           E
Another reason, enough sh-t for someone like you
       G
With no misguided hope


Chorus:
D                  G
I said together, you said you’d follow
E                           G
What we can wish for is last, it’s not so hollow


Verse 2:
          D
Raise my hand into the sunlight
           D
I look around
        D                 
But … telling me, we should …
                   E
I gave up on my field
              G
We’re coming behind!


Chorus Again:
D                  G
I said together, you said you’d follow
E                           G
What we can wish for is last, it’s not so hollow
D                  G
I said together, you said you’d follow
E                           G
What we can wish for is last, it’s not so hollow


Bridge:
Guitar Part

E-10101010--7777---5555-2222--5555-2222---5555-2222--|
B----------------------------------------------------|
G----------------------------------------------------|
D----------------------------------------------------|x a lot
A----------------------------------------------------|
E----------------------------------------------------|


Repeat Chorus out:
D                  G
I said together, you said you’d follow
E                           G
What we can wish for is last, it’s not so hollow
D                  G
I said together, you said you’d follow
E                           G
What we can wish for is last, it’s not so hollow
Suggest correction
Give kudos to tab author, rate the tab!
1 2 3 4 5
comments
print report bad tab
guest
You may want to rate the tab now too:
select rating
Wanna post a correction for this tab? Suggest correction