Oops, an error
Loading. Please wait.

The Sticks - Perfectly You Bass Tab

63 views 1 this week
no commentswrite comment
1 2 3 4 5
3 more votes to show rating
add to favorites
launch autoscroll
font size
0
reset
guitar tuner
Autoscroll
slow
fast
+/-
esc
set tempo
stop
Help us to improve Ultimate-Guitar.com Take our survey!
×
Author
Difficulty
novice
----------------------------------------------------------------------------
			 Perfectly You - The Sticks
----------------------------------------------------------------------------

Tuning: Standard

The Sticks are an up and coming band from Manchester. Perfectly You is the next song to 
recorded.

VERSE

G|----------------------------------------------------------------------|
D|----------5-3---------------------------------------------------------|
A|------3-5-----3-5-----------------------------------------------------| x10
E|--5-5-----------------------------------------------------------------|

CHORUS

G|----------------------------------------------------------------------|
D|----------------------------------------------------------------------|
A|--5---0--5------------------------------------------------------------|
E|----1------1----------------------------------------------------------|

VERSE

G|----------------------------------------------------------------------|
D|----------5-3---------------------------------------------------------|
A|------3-5-----3-5-----------------------------------------------------| x10
E|--5-5-----------------------------------------------------------------|

CHORUS

G|----------------------------------------------------------------------|
D|----------------------------------------------------------------------|
A|--5---0--5------------------------------------------------------------|
E|----1------1----------------------------------------------------------|

BREAK

G|----------------------------------------------------------------------|
D|----------------------------------------------------------------------|
A|--2222------2222------2222--------------------------------------------|
E|-------2222------2222------2222-3-5-----------------------------------|

VERSE

G|----------------------------------------------------------------------|
D|----------5-3---------------------------------------------------------|
A|------3-5-----3-5-----------------------------------------------------| x8
E|--5-5-----------------------------------------------------------------|

CHORUS

G|----------------------------------------------------------------------|
D|----------------------------------------------------------------------|
A|--5---0--5------------------------------------------------------------|
E|----1------1----------------------------------------------------------|
Suggest correction
Give kudos to tab author, rate the tab!
1 2 3 4 5
comments
print report bad tab
guest
You may want to rate the tab now too:
select rating
Wanna post a correction for this tab? Suggest correction