Oops, an error
Loading. Please wait.

The Strike Pattern - The Rookie Tab

89 views 1 this week
no commentswrite comment
1 2 3 4 5
please rate
add to favorites
launch autoscroll
font size
0
reset
how to read this tab
guitar tuner
Tab Pro tools
  • play this tab
  • loop segment
  • change instrument
  • show fretboard
  • metronome
×
Best way to learn
"The Strike Pattern - The Rookie"
Autoscroll
slow
fast
+/-
esc
set tempo
stop
Contributor
Difficulty
Tuning
intermediate
C G C F A D
Tabbed by Andy Brooks

Tuning Drop C (CGCFAD)

This is the first track off the 3 track demo and is the most tricky.
Listen carefully for the rhythm in the bridge.
This tab only contains my guitar.

Introduction

D|-----------10-----------------------------12---------------------|
A|-------------8------------------------------8--------------------|
F|-15/14--------10-----10101010-15/14/12-------10--9-9-9-----------|
C|-x--x---00-------00--7-7-7-7--x-x-x-x---0--------7-7-7--7/8/10-0-|
G|-13/12--00-------00--8-8-8-8--13/12/10--0--------0-0-0--7/8/10-0-|
C|--------00-------00---------------------0---------------7/8/10-0-|
	  pp	   pp		          p			 p

0:08

				  
D|-------------------------------------------------------|
A|-------------------------------------------------------|
F|-------------------------------------------------------|
C|----7p0--------10-0----7--00------7p0------10-0-7/8/10-|
G|-7/8---8/10p0-----0-----8-00---7/8---8/10p0---0-7/8/10-|
C|-------------00---0-7h8---00------------------0-7/8/10-|
	       pp   p	    pp		        p


Verse I

0:15

D|---------------10--------------------13--------------------|
A|------------8----8--8------------10-----10--10-------------|
F|----------10-10---10-----------10--10-----10----10---10----|
C|-00-00-00-------------00-00-00------------------8----10----|x4
G|-00-00-00-------------00-00-00------------------8-x8-10-x8-|
C|-00-00-00-------------00-00-00------------------8----10----|
   pp pp pp             pp pp pp


Pre-chorus

0:39		 0:55

D|------------| |------------------------------------------|
A|------------| |------------------------------------------|
F|------------| |------------------------------------------|
C|-0----------| |-12/0000-0----8-8888-8--10-10101010-10/11-|x2
G|-0-Let Ring-| |-12/0000-0-x2-8-8888-8--10-10101010-10/12-|
C|-0----------| |-12/0000-0----8-8888-8--10-10101010-10/11-|
		     pppp	 pppp	     p p p p


Chorus

1:14				 1:22

D|---------------------------|  |-10----10----12----12----13---13----13-----13-----|
A|---------------------------|  |---8-----8-----8-----8-----8----8-----11-----11---|
F|-7-----10-----10-----14----|  |----10----10----10----10----10---10-----12-----12-|
C|-7-x8--10-x8--10-----14----|x2|--------------------------------------------------|x2
G|-5-----8------8--x8--12-x8-|  |--------------------------------------------------|
C|--------------8------11----|  |--------------------------------------------------|


Verse II

1:30				       1:34

D|----------10----10----10----|       |---------------------|
A|------------8-----8-----8---|       |---------------------|
F|-------------10----10----10-|       |---------------------|
C|-12/000-0-------------------|x2 then|-8888---------8p7----|
G|-12/000-0-------------------|       |-8888-8p0-7p0----8p7-|
C|-12/000-0-------------------|       |-8888----------------|
      ppp p


Bridge

1:55							                   2:13

D|-------0-----------0--------------------------------------------|  |-000000000000-|
A|-------6-x8--------6-x4--8--------------------------------------|  |-666666666666-|
F|-------9-----------9-----x--------------------------------------|  |-999999999999-|
C|-12/00------00-000---870-7-0-8p0-000------0h7-55555555------7---|x2|--------------|
G|-12/00------00-000---870---0-8p0-000-0h7h8----55555555--------8-|  |--------------|
C|-12/00------00-000---870---0-8p0-000----------55555555/7h8-8----|  |--------------|
      pp                         p ppp

Ending

2:49

D|------------|
A|------------|
F|------------|
C|-7----------|
G|-8-Let Ring-|
C|-0----------|


Order:

Introduction
Verse I
Pre-chorus
Chorus
Verse II
Bridge
Chorus
Verse II
Ending.
comments
We did not receive enough feedback on this tab! Please rate:
print report bad tab
1 2 3 4 5
I want to post or [tab]
guest
You may want to rate the tab now too:
select rating
Please do not post tabs as comments. Select "correction" instead!