Oops, an error
Loading. Please wait.

The Subject - Plan Of Action Bass Tab

66 views 1 this week
no commentswrite comment
1 2 3 4 5
3 more votes to show rating
add to favorites
launch autoscroll
font size
0
reset
guitar tuner
Autoscroll
slow
fast
+/-
esc
set tempo
stop
Help us to improve Ultimate-Guitar.com Take our survey!
×
Author
Difficulty
-------------------------------------------------------------------------------
The Subject – Plan Of Action (Distorted)
-------------------------------------------------------------------------------
Tabbed by: TheSubjectTabs
Email: thesubject51@live.co.uk

					Tuning: E A D G		 

Verse 1
|------------------------------------------------------------------------------|
|------------------------------------------------------------------------------|
|------------------------------------------------------------------------------|   
|0-12-0-12-0-12-0-12-13-12-0-12-0-12-0-12-0-12-13-12-0-12-0-12-0-12-0-12-13-12-|

|-----------------------------|
|-----------------------------|
|-----------------------12~---|
|0-12-0-12-0-12-0-12-13-------|   x28 

Bridge
|-----------------------------|
|------------12-/-3-----------|
|-------12~-------------------|
|-12~-------------------------|

Verse 2
|--3~3~3~--6~--0~~---|
|--------------------|
|--------------------|
|--------------------|  

(Verse 2 is changed slightly in parts of the song, listen to the song so you know   when!)
 
 ____________________________________________________________________
Enjoy Guys!

Key For Symbols:
~  =  Hold
/   =  Slide

Suggest correction
Give kudos to tab author, rate the tab!
1 2 3 4 5
comments
print report bad tab
guest
You may want to rate the tab now too:
select rating
Wanna post a correction for this tab? Suggest correction