Oops, an error
Loading. Please wait.

The Thick Woman Rebound - Mommy And Daddy Didnt Want You But I Do Tab

1 view 1 this week
no commentswrite comment
1 2 3 4 5
3 more votes to show rating
add to favorites
launch autoscroll
font size
0
reset
how to read this tab
guitar tuner
Autoscroll
slow
fast
+/-
esc
set tempo
stop
Help us to improve Ultimate-Guitar.com Take our survey!
×
Author
[Verse]

e|---------------------------------------------------------------------------|
B|---------------------------------------------------------------------------|
G|---7-----------7-----------7-----------7---7-------------------------------|
D|-9---9-9-X-9-9---9-9-X-9-9---9-9-X-9-9---X---------------------------------|
A|---------------------------------------------------------------------------|
E|---------------------------------------------------------------------------|
PM.............

[Verse Chords]
e|----------------------------------------------------------------------------|
B|--8-----7-----5-------------------------------------------------------------|
G|--7-----7-----6-------------------------------------------------------------|
D|--9-----7-----7-------------------------------------------------------------|
A|--------------7-------------------------------------------------------------|
E|--------------5-------------------------------------------------------------|


[Chorus Chords]

e|---------------------------------------------------------------------------|
B|-5---5---------------------------------------------------------------------|
G|-5---5---4---5-------------------------------------------------------------|
D|-7---5---5---7-------------------------------------------------------------|
A|---------5---7-------------------------------------------------------------|
E|---------3---5-------------------------------------------------------------|

[Bridge]

e|---------------------------------------------------------------------------|
B|---------------------------------------------------------------------------|
G|---------------------------------------------------------------------------|
D|-9-9-9-9-9-9-9-9-9-9-9-9-9-9-9-7-7-5-5-5-5-2-------------------------------|
A|---------------------------------------------------------------------------|
E|---------------------------------------------------------------------------|


[Outro Chords Guitar 1]

e|-10----9---7---------------------------------------------------------------|
B|-----------0---------------------------------------------------------------|
G|-7-----6---6---------------------------------------------------------------|
D|-9-----7---7---------------------------------------------------------------|
A|---------------------------------------------------------------------------|
E|---------------------------------------------------------------------------|

[Outro Guitar 2]
e|---------------------------------------------------------------------------|
B|---------------------------------------------------------------------------|
G|---------------------------------------------------------------------------|
D|---------------------------------------------------------------------------|
A|---------------------------------------------------------------------------|
E|-0--/7--5--7--3------------------------------------------------------------|


************************************

| PM  Palm mute
| /   Slide up 

************************************
Suggest correction
Give kudos to tab author, rate the tab!
1 2 3 4 5
comments
print report bad tab
guest
You may want to rate the tab now too:
select rating
Wanna post a correction for this tab? Suggest correction