Oops, an error
Loading. Please wait.

The Thick Woman Rebound - Rastasafarian Tab

1 view 1 this week
no commentswrite comment
1 2 3 4 5
3 more votes to show rating
add to favorites
launch autoscroll
font size
0
reset
how to read this tab
guitar tuner
Autoscroll
slow
fast
+/-
esc
set tempo
stop
Help us to improve Ultimate-Guitar.com Take our survey!
×
Author
[Intro]

e|-12-----12-----------------------------------------------------------------|
B|-15b17-----15--12h15p12---------------------------------9-9-7--------------|
G|-------------------------14---14-14-14-14-14-14-14------9-9-7--------------|
D|--------------------------------------------------------9-9-7--------------|
A|---------------------------------------------------------------------------|
E|---------------------------------------------------------------------------|

e|--0---0---0---0------------------------------------------------------------|
B|--5---4---2---1------------------------------------------------------------|
G|---------------------------------------------------------------------------|
D|---------------------------------------------------------------------------|
A|---------------------------------------------------------------------------|
E|---------------------------------------------------------------------------|


[Main Riff]

e|---------------------------------------------------------------------------|
B|---------------------------------------------------------------------------|
G|---------------------------------------------------------------------------|
D|---------------------------------------------------------------------------|
A|-7p5-X-------------------7p5-X---------------------------------------------|
E|-------7p5-0-6-----------------7p5-0-3-------------------------------------|

[Verse]
e|---------------------------------------------------------------------------|
B|----9--x--7----------------------------------------------------------------|
G|----9--x--7----------------------------------------------------------------|
D|----9--x--7----------------------------------------------------------------|
A|----------------5h7-7-5h7-7-5h7-7-5h7-7-5h7-5h7----------------------------|
E|-7-------------------------------------------------------------------------|

e|---------------------------------------------------------------------------|
B|----9--x--7----------------------------------------------------------------|
G|----9--x--7----------------------------------------------------------------|
D|----9--x--7----------------------------------------------------------------|
A|----------------5h7-7-5h7-7-5h7-7-5h7-7-5----------------------------------|
E|-7----------------------------------------7-6-5-3--------------------------|

[Chorus Chords]

e|-----------0---------------------------------------------------------------|
B|-3----2----0---------------------------------------------------------------|
G|-4----2----1---------------------------------------------------------------|
D|-4----2----2---------------------------------------------------------------|
A|-2----0----2---------------------------------------------------------------|
E|-----------0---------------------------------------------------------------|



************************************

| h  Hammer-on
| p  Pull-off
| b  Bend
| x  Dead note

************************************
Suggest correction
Give kudos to tab author, rate the tab!
1 2 3 4 5
comments
print report bad tab
guest
You may want to rate the tab now too:
select rating
Wanna post a correction for this tab? Suggest correction